ISO-10303-21;
HEADER;
/* Generated by software containing ST-Developer
 * from STEP Tools, Inc. (www.steptools.com) 
 */

FILE_DESCRIPTION(
/* description */ (''),
/* implementation_level */ '2;1');

FILE_NAME(
/* name */ 'D:\\\X2\96F64EF6\X0\\\M8\X2\7CFB5217\X0\\\\X2\914D4EF6\X0\\\
ST0840.stp',
/* time_stamp */ '2025-04-01T15:13:10+08:00',
/* author */ ('1091212-1'),
/* organization */ (''),
/* preprocessor_version */ 'ST-DEVELOPER v15.6',
/* originating_system */ 'Autodesk Inventor 2015',
/* authorisation */ '');

FILE_SCHEMA (('AUTOMOTIVE_DESIGN { 1 0 10303 214 3 1 1 }'));
ENDSEC;

DATA;
#10=MECHANICAL_DESIGN_GEOMETRIC_PRESENTATION_REPRESENTATION('',(#21),#585);
#11=ITEM_DEFINED_TRANSFORMATION($,$,#349,#384);
#12=ITEM_DEFINED_TRANSFORMATION($,$,#349,#385);
#13=(
REPRESENTATION_RELATIONSHIP($,$,#598,#599)
REPRESENTATION_RELATIONSHIP_WITH_TRANSFORMATION(#11)
SHAPE_REPRESENTATION_RELATIONSHIP()
);
#14=(
REPRESENTATION_RELATIONSHIP($,$,#598,#599)
REPRESENTATION_RELATIONSHIP_WITH_TRANSFORMATION(#12)
SHAPE_REPRESENTATION_RELATIONSHIP()
);
#15=CONTEXT_DEPENDENT_SHAPE_REPRESENTATION(#13,#596);
#16=CONTEXT_DEPENDENT_SHAPE_REPRESENTATION(#14,#597);
#17=NEXT_ASSEMBLY_USAGE_OCCURRENCE('ST0840:1',$,$,#602,#601,$);
#18=NEXT_ASSEMBLY_USAGE_OCCURRENCE('ST0840:2',$,$,#602,#601,$);
#19=SHAPE_REPRESENTATION_RELATIONSHIP('SRR','None',#598,#20);
#20=ADVANCED_BREP_SHAPE_REPRESENTATION($,(#22),#583);
#21=STYLED_ITEM('',(#612),#22);
#22=MANIFOLD_SOLID_BREP('\X2\5BE69AD4\X0\1',#348);
#23=CONICAL_SURFACE('',#363,5.66175,45.);
#24=FACE_BOUND('',#71,.T.);
#25=FACE_BOUND('',#74,.T.);
#26=FACE_BOUND('',#76,.T.);
#27=FACE_BOUND('',#78,.T.);
#28=FACE_BOUND('',#80,.T.);
#29=FACE_BOUND('',#82,.T.);
#30=FACE_BOUND('',#84,.T.);
#31=FACE_BOUND('',#86,.T.);
#32=FACE_BOUND('',#88,.T.);
#33=FACE_BOUND('',#89,.T.);
#34=FACE_BOUND('',#90,.T.);
#35=FACE_BOUND('',#92,.T.);
#36=FACE_BOUND('',#95,.T.);
#37=FACE_BOUND('',#99,.T.);
#38=FACE_BOUND('',#100,.T.);
#39=FACE_BOUND('',#101,.T.);
#40=PLANE('',#356);
#41=PLANE('',#358);
#42=PLANE('',#359);
#43=PLANE('',#376);
#44=PLANE('',#377);
#45=PLANE('',#378);
#46=PLANE('',#379);
#47=PLANE('',#380);
#48=PLANE('',#381);
#49=PLANE('',#382);
#50=FACE_OUTER_BOUND('',#68,.T.);
#51=FACE_OUTER_BOUND('',#69,.T.);
#52=FACE_OUTER_BOUND('',#70,.T.);
#53=FACE_OUTER_BOUND('',#72,.T.);
#54=FACE_OUTER_BOUND('',#73,.T.);
#55=FACE_OUTER_BOUND('',#75,.T.);
#56=FACE_OUTER_BOUND('',#77,.T.);
#57=FACE_OUTER_BOUND('',#79,.T.);
#58=FACE_OUTER_BOUND('',#81,.T.);
#59=FACE_OUTER_BOUND('',#83,.T.);
#60=FACE_OUTER_BOUND('',#85,.T.);
#61=FACE_OUTER_BOUND('',#87,.T.);
#62=FACE_OUTER_BOUND('',#91,.T.);
#63=FACE_OUTER_BOUND('',#93,.T.);
#64=FACE_OUTER_BOUND('',#94,.T.);
#65=FACE_OUTER_BOUND('',#96,.T.);
#66=FACE_OUTER_BOUND('',#97,.T.);
#67=FACE_OUTER_BOUND('',#98,.T.);
#68=EDGE_LOOP('',(#241,#242,#243,#244));
#69=EDGE_LOOP('',(#245,#246,#247,#248));
#70=EDGE_LOOP('',(#249,#250,#251,#252));
#71=EDGE_LOOP('',(#253));
#72=EDGE_LOOP('',(#254,#255,#256,#257,#258,#259,#260,#261,#262,#263));
#73=EDGE_LOOP('',(#264,#265,#266,#267));
#74=EDGE_LOOP('',(#268));
#75=EDGE_LOOP('',(#269));
#76=EDGE_LOOP('',(#270));
#77=EDGE_LOOP('',(#271));
#78=EDGE_LOOP('',(#272));
#79=EDGE_LOOP('',(#273));
#80=EDGE_LOOP('',(#274));
#81=EDGE_LOOP('',(#275));
#82=EDGE_LOOP('',(#276));
#83=EDGE_LOOP('',(#277));
#84=EDGE_LOOP('',(#278));
#85=EDGE_LOOP('',(#279));
#86=EDGE_LOOP('',(#280));
#87=EDGE_LOOP('',(#281,#282,#283,#284));
#88=EDGE_LOOP('',(#285));
#89=EDGE_LOOP('',(#286));
#90=EDGE_LOOP('',(#287));
#91=EDGE_LOOP('',(#288,#289,#290,#291));
#92=EDGE_LOOP('',(#292));
#93=EDGE_LOOP('',(#293,#294,#295,#296));
#94=EDGE_LOOP('',(#297,#298,#299,#300));
#95=EDGE_LOOP('',(#301));
#96=EDGE_LOOP('',(#302,#303,#304,#305));
#97=EDGE_LOOP('',(#306,#307,#308,#309,#310,#311,#312,#313,#314,#315));
#98=EDGE_LOOP('',(#316,#317,#318,#319));
#99=EDGE_LOOP('',(#320));
#100=EDGE_LOOP('',(#321));
#101=EDGE_LOOP('',(#322));
#102=LINE('',#492,#128);
#103=LINE('',#495,#129);
#104=LINE('',#501,#130);
#105=LINE('',#504,#131);
#106=LINE('',#507,#132);
#107=LINE('',#509,#133);
#108=LINE('',#510,#134);
#109=LINE('',#515,#135);
#110=LINE('',#516,#136);
#111=LINE('',#518,#137);
#112=LINE('',#520,#138);
#113=LINE('',#522,#139);
#114=LINE('',#524,#140);
#115=LINE('',#525,#141);
#116=LINE('',#528,#142);
#117=LINE('',#529,#143);
#118=LINE('',#558,#144);
#119=LINE('',#559,#145);
#120=LINE('',#561,#146);
#121=LINE('',#564,#147);
#122=LINE('',#566,#148);
#123=LINE('',#567,#149);
#124=LINE('',#569,#150);
#125=LINE('',#572,#151);
#126=LINE('',#573,#152);
#127=LINE('',#575,#153);
#128=VECTOR('',#392,6.);
#129=VECTOR('',#395,6.);
#130=VECTOR('',#400,9.);
#131=VECTOR('',#403,9.);
#132=VECTOR('',#406,21.);
#133=VECTOR('',#407,40.);
#134=VECTOR('',#408,21.);
#135=VECTOR('',#413,19.);
#136=VECTOR('',#414,21.);
#137=VECTOR('',#415,29.);
#138=VECTOR('',#416,40.);
#139=VECTOR('',#417,8.);
#140=VECTOR('',#418,6.);
#141=VECTOR('',#419,21.);
#142=VECTOR('',#422,29.);
#143=VECTOR('',#423,40.);
#144=VECTOR('',#458,19.);
#145=VECTOR('',#459,40.);
#146=VECTOR('',#462,21.);
#147=VECTOR('',#465,40.);
#148=VECTOR('',#466,6.);
#149=VECTOR('',#467,40.);
#150=VECTOR('',#470,21.);
#151=VECTOR('',#473,40.);
#152=VECTOR('',#474,8.);
#153=VECTOR('',#477,40.);
#154=CIRCLE('',#351,20.);
#155=CIRCLE('',#352,20.);
#156=CIRCLE('',#354,20.);
#157=CIRCLE('',#355,20.);
#158=CIRCLE('',#357,3.3235);
#159=CIRCLE('',#360,8.);
#160=CIRCLE('',#362,3.3235);
#161=CIRCLE('',#364,3.3235);
#162=CIRCLE('',#366,3.3235);
#163=CIRCLE('',#368,3.5);
#164=CIRCLE('',#369,3.5);
#165=CIRCLE('',#371,3.3235);
#166=CIRCLE('',#372,3.3235);
#167=CIRCLE('',#374,3.3235);
#168=CIRCLE('',#375,3.3235);
#169=VERTEX_POINT('',#488);
#170=VERTEX_POINT('',#489);
#171=VERTEX_POINT('',#491);
#172=VERTEX_POINT('',#493);
#173=VERTEX_POINT('',#497);
#174=VERTEX_POINT('',#498);
#175=VERTEX_POINT('',#500);
#176=VERTEX_POINT('',#502);
#177=VERTEX_POINT('',#506);
#178=VERTEX_POINT('',#508);
#179=VERTEX_POINT('',#511);
#180=VERTEX_POINT('',#514);
#181=VERTEX_POINT('',#517);
#182=VERTEX_POINT('',#519);
#183=VERTEX_POINT('',#521);
#184=VERTEX_POINT('',#523);
#185=VERTEX_POINT('',#527);
#186=VERTEX_POINT('',#530);
#187=VERTEX_POINT('',#533);
#188=VERTEX_POINT('',#536);
#189=VERTEX_POINT('',#539);
#190=VERTEX_POINT('',#542);
#191=VERTEX_POINT('',#544);
#192=VERTEX_POINT('',#547);
#193=VERTEX_POINT('',#549);
#194=VERTEX_POINT('',#552);
#195=VERTEX_POINT('',#554);
#196=VERTEX_POINT('',#557);
#197=VERTEX_POINT('',#563);
#198=VERTEX_POINT('',#565);
#199=VERTEX_POINT('',#571);
#200=EDGE_CURVE('',#169,#170,#154,.T.);
#201=EDGE_CURVE('',#169,#171,#102,.T.);
#202=EDGE_CURVE('',#172,#171,#155,.T.);
#203=EDGE_CURVE('',#170,#172,#103,.T.);
#204=EDGE_CURVE('',#173,#174,#156,.T.);
#205=EDGE_CURVE('',#173,#175,#104,.T.);
#206=EDGE_CURVE('',#176,#175,#157,.T.);
#207=EDGE_CURVE('',#174,#176,#105,.T.);
#208=EDGE_CURVE('',#177,#175,#106,.T.);
#209=EDGE_CURVE('',#177,#178,#107,.T.);
#210=EDGE_CURVE('',#176,#178,#108,.T.);
#211=EDGE_CURVE('',#179,#179,#158,.T.);
#212=EDGE_CURVE('',#178,#180,#109,.T.);
#213=EDGE_CURVE('',#180,#170,#110,.T.);
#214=EDGE_CURVE('',#181,#172,#111,.T.);
#215=EDGE_CURVE('',#181,#182,#112,.T.);
#216=EDGE_CURVE('',#183,#182,#113,.T.);
#217=EDGE_CURVE('',#183,#184,#114,.T.);
#218=EDGE_CURVE('',#184,#174,#115,.T.);
#219=EDGE_CURVE('',#171,#185,#116,.T.);
#220=EDGE_CURVE('',#185,#181,#117,.T.);
#221=EDGE_CURVE('',#186,#186,#159,.T.);
#222=EDGE_CURVE('',#187,#187,#160,.T.);
#223=EDGE_CURVE('',#188,#188,#161,.T.);
#224=EDGE_CURVE('',#189,#189,#162,.T.);
#225=EDGE_CURVE('',#190,#190,#163,.T.);
#226=EDGE_CURVE('',#191,#191,#164,.T.);
#227=EDGE_CURVE('',#192,#192,#165,.T.);
#228=EDGE_CURVE('',#193,#193,#166,.T.);
#229=EDGE_CURVE('',#194,#194,#167,.T.);
#230=EDGE_CURVE('',#195,#195,#168,.T.);
#231=EDGE_CURVE('',#196,#177,#118,.T.);
#232=EDGE_CURVE('',#196,#180,#119,.T.);
#233=EDGE_CURVE('',#169,#196,#120,.T.);
#234=EDGE_CURVE('',#197,#183,#121,.T.);
#235=EDGE_CURVE('',#198,#197,#122,.T.);
#236=EDGE_CURVE('',#198,#184,#123,.T.);
#237=EDGE_CURVE('',#173,#198,#124,.T.);
#238=EDGE_CURVE('',#182,#199,#125,.T.);
#239=EDGE_CURVE('',#199,#197,#126,.T.);
#240=EDGE_CURVE('',#199,#185,#127,.T.);
#241=ORIENTED_EDGE('',*,*,#200,.F.);
#242=ORIENTED_EDGE('',*,*,#201,.T.);
#243=ORIENTED_EDGE('',*,*,#202,.F.);
#244=ORIENTED_EDGE('',*,*,#203,.F.);
#245=ORIENTED_EDGE('',*,*,#204,.F.);
#246=ORIENTED_EDGE('',*,*,#205,.T.);
#247=ORIENTED_EDGE('',*,*,#206,.F.);
#248=ORIENTED_EDGE('',*,*,#207,.F.);
#249=ORIENTED_EDGE('',*,*,#206,.T.);
#250=ORIENTED_EDGE('',*,*,#208,.F.);
#251=ORIENTED_EDGE('',*,*,#209,.T.);
#252=ORIENTED_EDGE('',*,*,#210,.F.);
#253=ORIENTED_EDGE('',*,*,#211,.T.);
#254=ORIENTED_EDGE('',*,*,#207,.T.);
#255=ORIENTED_EDGE('',*,*,#210,.T.);
#256=ORIENTED_EDGE('',*,*,#212,.T.);
#257=ORIENTED_EDGE('',*,*,#213,.T.);
#258=ORIENTED_EDGE('',*,*,#203,.T.);
#259=ORIENTED_EDGE('',*,*,#214,.F.);
#260=ORIENTED_EDGE('',*,*,#215,.T.);
#261=ORIENTED_EDGE('',*,*,#216,.F.);
#262=ORIENTED_EDGE('',*,*,#217,.T.);
#263=ORIENTED_EDGE('',*,*,#218,.T.);
#264=ORIENTED_EDGE('',*,*,#202,.T.);
#265=ORIENTED_EDGE('',*,*,#219,.T.);
#266=ORIENTED_EDGE('',*,*,#220,.T.);
#267=ORIENTED_EDGE('',*,*,#214,.T.);
#268=ORIENTED_EDGE('',*,*,#221,.T.);
#269=ORIENTED_EDGE('',*,*,#222,.F.);
#270=ORIENTED_EDGE('',*,*,#211,.F.);
#271=ORIENTED_EDGE('',*,*,#221,.F.);
#272=ORIENTED_EDGE('',*,*,#223,.F.);
#273=ORIENTED_EDGE('',*,*,#224,.F.);
#274=ORIENTED_EDGE('',*,*,#223,.T.);
#275=ORIENTED_EDGE('',*,*,#225,.F.);
#276=ORIENTED_EDGE('',*,*,#226,.F.);
#277=ORIENTED_EDGE('',*,*,#227,.F.);
#278=ORIENTED_EDGE('',*,*,#228,.F.);
#279=ORIENTED_EDGE('',*,*,#229,.F.);
#280=ORIENTED_EDGE('',*,*,#230,.F.);
#281=ORIENTED_EDGE('',*,*,#212,.F.);
#282=ORIENTED_EDGE('',*,*,#209,.F.);
#283=ORIENTED_EDGE('',*,*,#231,.F.);
#284=ORIENTED_EDGE('',*,*,#232,.T.);
#285=ORIENTED_EDGE('',*,*,#225,.T.);
#286=ORIENTED_EDGE('',*,*,#227,.T.);
#287=ORIENTED_EDGE('',*,*,#229,.T.);
#288=ORIENTED_EDGE('',*,*,#200,.T.);
#289=ORIENTED_EDGE('',*,*,#213,.F.);
#290=ORIENTED_EDGE('',*,*,#232,.F.);
#291=ORIENTED_EDGE('',*,*,#233,.F.);
#292=ORIENTED_EDGE('',*,*,#224,.T.);
#293=ORIENTED_EDGE('',*,*,#234,.F.);
#294=ORIENTED_EDGE('',*,*,#235,.F.);
#295=ORIENTED_EDGE('',*,*,#236,.T.);
#296=ORIENTED_EDGE('',*,*,#217,.F.);
#297=ORIENTED_EDGE('',*,*,#204,.T.);
#298=ORIENTED_EDGE('',*,*,#218,.F.);
#299=ORIENTED_EDGE('',*,*,#236,.F.);
#300=ORIENTED_EDGE('',*,*,#237,.F.);
#301=ORIENTED_EDGE('',*,*,#222,.T.);
#302=ORIENTED_EDGE('',*,*,#234,.T.);
#303=ORIENTED_EDGE('',*,*,#216,.T.);
#304=ORIENTED_EDGE('',*,*,#238,.T.);
#305=ORIENTED_EDGE('',*,*,#239,.T.);
#306=ORIENTED_EDGE('',*,*,#205,.F.);
#307=ORIENTED_EDGE('',*,*,#237,.T.);
#308=ORIENTED_EDGE('',*,*,#235,.T.);
#309=ORIENTED_EDGE('',*,*,#239,.F.);
#310=ORIENTED_EDGE('',*,*,#240,.T.);
#311=ORIENTED_EDGE('',*,*,#219,.F.);
#312=ORIENTED_EDGE('',*,*,#201,.F.);
#313=ORIENTED_EDGE('',*,*,#233,.T.);
#314=ORIENTED_EDGE('',*,*,#231,.T.);
#315=ORIENTED_EDGE('',*,*,#208,.T.);
#316=ORIENTED_EDGE('',*,*,#240,.F.);
#317=ORIENTED_EDGE('',*,*,#238,.F.);
#318=ORIENTED_EDGE('',*,*,#215,.F.);
#319=ORIENTED_EDGE('',*,*,#220,.F.);
#320=ORIENTED_EDGE('',*,*,#226,.T.);
#321=ORIENTED_EDGE('',*,*,#228,.T.);
#322=ORIENTED_EDGE('',*,*,#230,.T.);
#323=CYLINDRICAL_SURFACE('',#350,20.);
#324=CYLINDRICAL_SURFACE('',#353,20.);
#325=CYLINDRICAL_SURFACE('',#361,3.3235);
#326=CYLINDRICAL_SURFACE('',#365,3.3235);
#327=CYLINDRICAL_SURFACE('',#367,3.5);
#328=CYLINDRICAL_SURFACE('',#370,3.3235);
#329=CYLINDRICAL_SURFACE('',#373,3.3235);
#330=ADVANCED_FACE('',(#50),#323,.T.);
#331=ADVANCED_FACE('',(#51),#324,.T.);
#332=ADVANCED_FACE('',(#52,#24),#40,.F.);
#333=ADVANCED_FACE('',(#53),#41,.T.);
#334=ADVANCED_FACE('',(#54,#25),#42,.T.);
#335=ADVANCED_FACE('',(#55,#26),#325,.F.);
#336=ADVANCED_FACE('',(#56,#27),#23,.F.);
#337=ADVANCED_FACE('',(#57,#28),#326,.F.);
#338=ADVANCED_FACE('',(#58,#29),#327,.F.);
#339=ADVANCED_FACE('',(#59,#30),#328,.F.);
#340=ADVANCED_FACE('',(#60,#31),#329,.F.);
#341=ADVANCED_FACE('',(#61,#32,#33,#34),#43,.F.);
#342=ADVANCED_FACE('',(#62,#35),#44,.F.);
#343=ADVANCED_FACE('',(#63),#45,.F.);
#344=ADVANCED_FACE('',(#64,#36),#46,.F.);
#345=ADVANCED_FACE('',(#65),#47,.T.);
#346=ADVANCED_FACE('',(#66),#48,.T.);
#347=ADVANCED_FACE('',(#67,#37,#38,#39),#49,.T.);
#348=CLOSED_SHELL('',(#330,#331,#332,#333,#334,#335,#336,#337,#338,#339,
#340,#341,#342,#343,#344,#345,#346,#347));
#349=AXIS2_PLACEMENT_3D('placement',#486,#386,#387);
#350=AXIS2_PLACEMENT_3D('',#487,#388,#389);
#351=AXIS2_PLACEMENT_3D('',#490,#390,#391);
#352=AXIS2_PLACEMENT_3D('',#494,#393,#394);
#353=AXIS2_PLACEMENT_3D('',#496,#396,#397);
#354=AXIS2_PLACEMENT_3D('',#499,#398,#399);
#355=AXIS2_PLACEMENT_3D('',#503,#401,#402);
#356=AXIS2_PLACEMENT_3D('',#505,#404,#405);
#357=AXIS2_PLACEMENT_3D('',#512,#409,#410);
#358=AXIS2_PLACEMENT_3D('',#513,#411,#412);
#359=AXIS2_PLACEMENT_3D('',#526,#420,#421);
#360=AXIS2_PLACEMENT_3D('',#531,#424,#425);
#361=AXIS2_PLACEMENT_3D('',#532,#426,#427);
#362=AXIS2_PLACEMENT_3D('',#534,#428,#429);
#363=AXIS2_PLACEMENT_3D('',#535,#430,#431);
#364=AXIS2_PLACEMENT_3D('',#537,#432,#433);
#365=AXIS2_PLACEMENT_3D('',#538,#434,#435);
#366=AXIS2_PLACEMENT_3D('',#540,#436,#437);
#367=AXIS2_PLACEMENT_3D('',#541,#438,#439);
#368=AXIS2_PLACEMENT_3D('',#543,#440,#441);
#369=AXIS2_PLACEMENT_3D('',#545,#442,#443);
#370=AXIS2_PLACEMENT_3D('',#546,#444,#445);
#371=AXIS2_PLACEMENT_3D('',#548,#446,#447);
#372=AXIS2_PLACEMENT_3D('',#550,#448,#449);
#373=AXIS2_PLACEMENT_3D('',#551,#450,#451);
#374=AXIS2_PLACEMENT_3D('',#553,#452,#453);
#375=AXIS2_PLACEMENT_3D('',#555,#454,#455);
#376=AXIS2_PLACEMENT_3D('',#556,#456,#457);
#377=AXIS2_PLACEMENT_3D('',#560,#460,#461);
#378=AXIS2_PLACEMENT_3D('',#562,#463,#464);
#379=AXIS2_PLACEMENT_3D('',#568,#468,#469);
#380=AXIS2_PLACEMENT_3D('',#570,#471,#472);
#381=AXIS2_PLACEMENT_3D('',#574,#475,#476);
#382=AXIS2_PLACEMENT_3D('',#576,#478,#479);
#383=AXIS2_PLACEMENT_3D('placement',#577,#480,#481);
#384=AXIS2_PLACEMENT_3D('',#578,#482,#483);
#385=AXIS2_PLACEMENT_3D('',#579,#484,#485);
#386=DIRECTION('axis',(0.,0.,1.));
#387=DIRECTION('refdir',(1.,0.,0.));
#388=DIRECTION('center_axis',(0.,0.,1.));
#389=DIRECTION('ref_axis',(0.,-1.,0.));
#390=DIRECTION('center_axis',(0.,0.,1.));
#391=DIRECTION('ref_axis',(0.,-1.,0.));
#392=DIRECTION('',(0.,0.,-1.));
#393=DIRECTION('center_axis',(0.,0.,-1.));
#394=DIRECTION('ref_axis',(0.,-1.,0.));
#395=DIRECTION('',(0.,0.,-1.));
#396=DIRECTION('center_axis',(0.,0.,1.));
#397=DIRECTION('ref_axis',(0.,-1.,0.));
#398=DIRECTION('center_axis',(-1.94375812718522E-17,0.,1.));
#399=DIRECTION('ref_axis',(0.,-1.,0.));
#400=DIRECTION('',(0.,0.,-1.));
#401=DIRECTION('center_axis',(-1.00929365875014E-16,0.,-1.));
#402=DIRECTION('ref_axis',(0.,-1.,0.));
#403=DIRECTION('',(0.,0.,-1.));
#404=DIRECTION('center_axis',(1.00929365875014E-16,0.,1.));
#405=DIRECTION('ref_axis',(-1.,0.,8.88178419700125E-17));
#406=DIRECTION('',(-1.,0.,1.00929365875014E-16));
#407=DIRECTION('',(0.,-1.,0.));
#408=DIRECTION('',(1.,0.,-1.00929365875014E-16));
#409=DIRECTION('center_axis',(1.00929365875014E-16,0.,1.));
#410=DIRECTION('ref_axis',(-1.,0.,0.));
#411=DIRECTION('center_axis',(0.,-1.,0.));
#412=DIRECTION('ref_axis',(1.,0.,0.));
#413=DIRECTION('',(0.,0.,-1.));
#414=DIRECTION('',(-1.,0.,0.));
#415=DIRECTION('',(-1.,0.,0.));
#416=DIRECTION('',(0.,0.,1.));
#417=DIRECTION('',(1.,0.,0.));
#418=DIRECTION('',(0.,0.,-1.));
#419=DIRECTION('',(-1.,0.,-1.94375812718522E-17));
#420=DIRECTION('center_axis',(0.,0.,-1.));
#421=DIRECTION('ref_axis',(-1.,0.,0.));
#422=DIRECTION('',(1.,0.,0.));
#423=DIRECTION('',(0.,-1.,0.));
#424=DIRECTION('center_axis',(0.,0.,1.));
#425=DIRECTION('ref_axis',(-1.,0.,0.));
#426=DIRECTION('center_axis',(0.,0.,-1.));
#427=DIRECTION('ref_axis',(-1.,0.,0.));
#428=DIRECTION('center_axis',(1.94375812718522E-17,0.,-1.));
#429=DIRECTION('ref_axis',(-1.,0.,0.));
#430=DIRECTION('center_axis',(0.,0.,-1.));
#431=DIRECTION('ref_axis',(-1.,0.,0.));
#432=DIRECTION('center_axis',(0.,0.,-1.));
#433=DIRECTION('ref_axis',(-1.,0.,0.));
#434=DIRECTION('center_axis',(0.,0.,-1.));
#435=DIRECTION('ref_axis',(-1.,0.,0.));
#436=DIRECTION('center_axis',(0.,0.,-1.));
#437=DIRECTION('ref_axis',(-1.,0.,0.));
#438=DIRECTION('center_axis',(1.,0.,0.));
#439=DIRECTION('ref_axis',(0.,0.,-1.));
#440=DIRECTION('center_axis',(1.,0.,0.));
#441=DIRECTION('ref_axis',(0.,0.,-1.));
#442=DIRECTION('center_axis',(-1.,0.,0.));
#443=DIRECTION('ref_axis',(0.,0.,-1.));
#444=DIRECTION('center_axis',(1.,0.,0.));
#445=DIRECTION('ref_axis',(0.,0.,-1.));
#446=DIRECTION('center_axis',(1.,0.,0.));
#447=DIRECTION('ref_axis',(0.,0.,-1.));
#448=DIRECTION('center_axis',(-1.,0.,0.));
#449=DIRECTION('ref_axis',(0.,0.,-1.));
#450=DIRECTION('center_axis',(1.,0.,0.));
#451=DIRECTION('ref_axis',(0.,0.,-1.));
#452=DIRECTION('center_axis',(1.,0.,0.));
#453=DIRECTION('ref_axis',(0.,0.,-1.));
#454=DIRECTION('center_axis',(-1.,0.,0.));
#455=DIRECTION('ref_axis',(0.,0.,-1.));
#456=DIRECTION('center_axis',(1.,0.,0.));
#457=DIRECTION('ref_axis',(0.,0.,1.));
#458=DIRECTION('',(0.,0.,1.));
#459=DIRECTION('',(0.,-1.,0.));
#460=DIRECTION('center_axis',(0.,0.,-1.));
#461=DIRECTION('ref_axis',(1.,0.,0.));
#462=DIRECTION('',(1.,0.,0.));
#463=DIRECTION('center_axis',(1.,0.,0.));
#464=DIRECTION('ref_axis',(0.,0.,1.));
#465=DIRECTION('',(0.,-1.,0.));
#466=DIRECTION('',(0.,0.,1.));
#467=DIRECTION('',(0.,-1.,0.));
#468=DIRECTION('center_axis',(1.94375812718522E-17,0.,-1.));
#469=DIRECTION('ref_axis',(1.,0.,0.));
#470=DIRECTION('',(1.,0.,1.94375812718522E-17));
#471=DIRECTION('center_axis',(0.,0.,1.));
#472=DIRECTION('ref_axis',(1.,0.,0.));
#473=DIRECTION('',(0.,1.,0.));
#474=DIRECTION('',(-1.,0.,0.));
#475=DIRECTION('center_axis',(0.,1.,0.));
#476=DIRECTION('ref_axis',(-1.,0.,0.));
#477=DIRECTION('',(0.,0.,-1.));
#478=DIRECTION('center_axis',(1.,0.,0.));
#479=DIRECTION('ref_axis',(0.,1.,0.));
#480=DIRECTION('axis',(0.,0.,1.));
#481=DIRECTION('refdir',(1.,0.,0.));
#482=DIRECTION('',(0.0527331133985894,-0.0119747480088665,0.998536841664551));
#483=DIRECTION('',(0.998608591450137,0.000315964025034287,-0.0527331133985894));
#484=DIRECTION('',(-0.0527331133985889,0.0119747480088672,-0.99853684166455));
#485=DIRECTION('',(-0.993639921049048,0.0989956077946708,0.053661689639861));
#486=CARTESIAN_POINT('',(0.,0.,0.));
#487=CARTESIAN_POINT('Origin',(0.999999999999998,0.,-20.));
#488=CARTESIAN_POINT('',(0.999999999999998,20.,-14.));
#489=CARTESIAN_POINT('',(0.999999999999998,-20.,-14.));
#490=CARTESIAN_POINT('Origin',(0.999999999999998,0.,-14.));
#491=CARTESIAN_POINT('',(0.999999999999998,20.,-20.));
#492=CARTESIAN_POINT('',(0.999999999999998,20.,-20.));
#493=CARTESIAN_POINT('',(0.999999999999998,-20.,-20.));
#494=CARTESIAN_POINT('Origin',(0.999999999999998,0.,-20.));
#495=CARTESIAN_POINT('',(0.999999999999998,-20.,-20.));
#496=CARTESIAN_POINT('Origin',(0.999999999999998,0.,-20.));
#497=CARTESIAN_POINT('',(0.999999999999998,20.,14.));
#498=CARTESIAN_POINT('',(0.999999999999998,-20.,14.));
#499=CARTESIAN_POINT('Origin',(0.999999999999998,0.,14.));
#500=CARTESIAN_POINT('',(0.999999999999998,20.,5.));
#501=CARTESIAN_POINT('',(0.999999999999998,20.,-20.));
#502=CARTESIAN_POINT('',(0.999999999999998,-20.,5.));
#503=CARTESIAN_POINT('Origin',(0.999999999999998,0.,5.));
#504=CARTESIAN_POINT('',(0.999999999999998,-20.,-20.));
#505=CARTESIAN_POINT('Origin',(22.,20.,5.));
#506=CARTESIAN_POINT('',(22.,20.,5.));
#507=CARTESIAN_POINT('',(26.,20.,5.));
#508=CARTESIAN_POINT('',(22.,-20.,5.));
#509=CARTESIAN_POINT('',(22.,20.,5.));
#510=CARTESIAN_POINT('',(-4.,-20.,5.));
#511=CARTESIAN_POINT('',(4.3235,4.07011363696623E-16,5.));
#512=CARTESIAN_POINT('Origin',(0.999999999999998,0.,5.));
#513=CARTESIAN_POINT('Origin',(-30.,-20.,0.));
#514=CARTESIAN_POINT('',(22.,-20.,-14.));
#515=CARTESIAN_POINT('',(22.,-20.,-7.));
#516=CARTESIAN_POINT('',(-26.,-20.,-14.));
#517=CARTESIAN_POINT('',(30.,-20.,-20.));
#518=CARTESIAN_POINT('',(30.,-20.,-20.));
#519=CARTESIAN_POINT('',(30.,-20.,20.));
#520=CARTESIAN_POINT('',(30.,-20.,0.));
#521=CARTESIAN_POINT('',(22.,-20.,20.));
#522=CARTESIAN_POINT('',(30.,-20.,20.));
#523=CARTESIAN_POINT('',(22.,-20.,14.));
#524=CARTESIAN_POINT('',(22.,-20.,7.));
#525=CARTESIAN_POINT('',(-32.5586722210361,-20.,14.));
#526=CARTESIAN_POINT('Origin',(0.,0.,-20.));
#527=CARTESIAN_POINT('',(30.,20.,-20.));
#528=CARTESIAN_POINT('',(-30.,20.,-20.));
#529=CARTESIAN_POINT('',(30.,20.,-20.));
#530=CARTESIAN_POINT('',(-7.,0.,-20.));
#531=CARTESIAN_POINT('Origin',(0.999999999999998,0.,-20.));
#532=CARTESIAN_POINT('Origin',(0.999999999999998,0.,62.4621125123532));
#533=CARTESIAN_POINT('',(4.3235,-4.07011363696623E-16,14.));
#534=CARTESIAN_POINT('Origin',(0.999999999999998,0.,14.));
#535=CARTESIAN_POINT('Origin',(0.999999999999998,0.,-17.66175));
#536=CARTESIAN_POINT('',(-2.3235,0.,-15.3235));
#537=CARTESIAN_POINT('Origin',(0.999999999999998,0.,-15.3235));
#538=CARTESIAN_POINT('Origin',(0.999999999999998,0.,62.4621125123532));
#539=CARTESIAN_POINT('',(4.3235,-4.07011363696623E-16,-14.));
#540=CARTESIAN_POINT('Origin',(0.999999999999998,0.,-14.));
#541=CARTESIAN_POINT('Origin',(-52.4621125123532,0.,0.));
#542=CARTESIAN_POINT('',(22.,-4.28626379701574E-16,3.5));
#543=CARTESIAN_POINT('Origin',(22.,0.,0.));
#544=CARTESIAN_POINT('',(30.,0.,-3.5));
#545=CARTESIAN_POINT('Origin',(30.,0.,0.));
#546=CARTESIAN_POINT('Origin',(-52.4621125123532,12.,0.));
#547=CARTESIAN_POINT('',(22.,12.,3.3235));
#548=CARTESIAN_POINT('Origin',(22.,12.,0.));
#549=CARTESIAN_POINT('',(30.,12.,-3.3235));
#550=CARTESIAN_POINT('Origin',(30.,12.,0.));
#551=CARTESIAN_POINT('Origin',(-52.4621125123532,-12.,0.));
#552=CARTESIAN_POINT('',(22.,-12.,3.3235));
#553=CARTESIAN_POINT('Origin',(22.,-12.,0.));
#554=CARTESIAN_POINT('',(30.,-12.,-3.3235));
#555=CARTESIAN_POINT('Origin',(30.,-12.,0.));
#556=CARTESIAN_POINT('Origin',(22.,20.,-14.));
#557=CARTESIAN_POINT('',(22.,20.,-14.));
#558=CARTESIAN_POINT('',(22.,20.,-7.));
#559=CARTESIAN_POINT('',(22.,20.,-14.));
#560=CARTESIAN_POINT('Origin',(-22.,20.,-14.));
#561=CARTESIAN_POINT('',(4.,20.,-14.));
#562=CARTESIAN_POINT('Origin',(22.,20.,14.));
#563=CARTESIAN_POINT('',(22.,20.,20.));
#564=CARTESIAN_POINT('',(22.,10.,20.));
#565=CARTESIAN_POINT('',(22.,20.,14.));
#566=CARTESIAN_POINT('',(22.,20.,7.));
#567=CARTESIAN_POINT('',(22.,20.,14.));
#568=CARTESIAN_POINT('Origin',(-35.1173444420722,20.,14.));
#569=CARTESIAN_POINT('',(-2.5586722210361,20.,14.));
#570=CARTESIAN_POINT('Origin',(0.,0.,20.));
#571=CARTESIAN_POINT('',(30.,20.,20.));
#572=CARTESIAN_POINT('',(30.,20.,20.));
#573=CARTESIAN_POINT('',(-30.,20.,20.));
#574=CARTESIAN_POINT('Origin',(30.,20.,0.));
#575=CARTESIAN_POINT('',(30.,20.,0.));
#576=CARTESIAN_POINT('Origin',(30.,-20.,0.));
#577=CARTESIAN_POINT('',(0.,0.,0.));
#578=CARTESIAN_POINT('',(-26.7781938734462,-4.2806382060836,1.2280482426326));
#579=CARTESIAN_POINT('',(-24.7859453609471,-4.37931784985324,1.12165343959402));
#580=UNCERTAINTY_MEASURE_WITH_UNIT(LENGTH_MEASURE(0.01),#586,
'DISTANCE_ACCURACY_VALUE',
'Maximum model space distance between geometric entities at asserted c
onnectivities');
#581=UNCERTAINTY_MEASURE_WITH_UNIT(LENGTH_MEASURE(0.01),#586,
'DISTANCE_ACCURACY_VALUE',
'Maximum model space distance between geometric entities at asserted c
onnectivities');
#582=UNCERTAINTY_MEASURE_WITH_UNIT(LENGTH_MEASURE(1.E-6),#586,
'DISTANCE_ACCURACY_VALUE',
'Maximum model space distance between geometric entities at asserted c
onnectivities');
#583=(
GEOMETRIC_REPRESENTATION_CONTEXT(3)
GLOBAL_UNCERTAINTY_ASSIGNED_CONTEXT((#580))
GLOBAL_UNIT_ASSIGNED_CONTEXT((#586,#589,#587))
REPRESENTATION_CONTEXT('','3D')
);
#584=(
GEOMETRIC_REPRESENTATION_CONTEXT(3)
GLOBAL_UNCERTAINTY_ASSIGNED_CONTEXT((#581))
GLOBAL_UNIT_ASSIGNED_CONTEXT((#586,#589,#587))
REPRESENTATION_CONTEXT('','3D')
);
#585=(
GEOMETRIC_REPRESENTATION_CONTEXT(3)
GLOBAL_UNCERTAINTY_ASSIGNED_CONTEXT((#582))
GLOBAL_UNIT_ASSIGNED_CONTEXT((#586,#589,#587))
REPRESENTATION_CONTEXT('','3D')
);
#586=(
LENGTH_UNIT()
NAMED_UNIT(*)
SI_UNIT(.MILLI.,.METRE.)
);
#587=(
NAMED_UNIT(*)
SI_UNIT($,.STERADIAN.)
SOLID_ANGLE_UNIT()
);
#588=DIMENSIONAL_EXPONENTS(0.,0.,0.,0.,0.,0.,0.);
#589=(
CONVERSION_BASED_UNIT('degree',#591)
NAMED_UNIT(#588)
PLANE_ANGLE_UNIT()
);
#590=(
NAMED_UNIT(*)
PLANE_ANGLE_UNIT()
SI_UNIT($,.RADIAN.)
);
#591=PLANE_ANGLE_MEASURE_WITH_UNIT(PLANE_ANGLE_MEASURE(0.01745329252),#590);
#592=SHAPE_DEFINITION_REPRESENTATION(#594,#598);
#593=SHAPE_DEFINITION_REPRESENTATION(#595,#599);
#594=PRODUCT_DEFINITION_SHAPE('',$,#601);
#595=PRODUCT_DEFINITION_SHAPE('',$,#602);
#596=PRODUCT_DEFINITION_SHAPE($,$,#17);
#597=PRODUCT_DEFINITION_SHAPE($,$,#18);
#598=SHAPE_REPRESENTATION('',(#349),#583);
#599=SHAPE_REPRESENTATION('',(#383,#384,#385),#584);
#600=PRODUCT_DEFINITION_CONTEXT('part definition',#608,'design');
#601=PRODUCT_DEFINITION('ST0840','ST0840',#603,#600);
#602=PRODUCT_DEFINITION('ST0840','ST0840',#604,#600);
#603=PRODUCT_DEFINITION_FORMATION('',$,#610);
#604=PRODUCT_DEFINITION_FORMATION('',$,#611);
#605=PRODUCT_RELATED_PRODUCT_CATEGORY('ST0840','ST0840',(#610));
#606=PRODUCT_RELATED_PRODUCT_CATEGORY('ST0840','ST0840',(#611));
#607=APPLICATION_PROTOCOL_DEFINITION('international standard',
'automotive_design',2009,#608);
#608=APPLICATION_CONTEXT(
'Core Data for Automotive Mechanical Design Process');
#609=PRODUCT_CONTEXT('part definition',#608,'mechanical');
#610=PRODUCT('ST0840','ST0840',$,(#609));
#611=PRODUCT('ST0840','ST0840',$,(#609));
#612=PRESENTATION_STYLE_ASSIGNMENT((#613));
#613=SURFACE_STYLE_USAGE(.BOTH.,#614);
#614=SURFACE_SIDE_STYLE($,(#615));
#615=SURFACE_STYLE_FILL_AREA(#616);
#616=FILL_AREA_STYLE($,(#617));
#617=FILL_AREA_STYLE_COLOUR($,#618);
#618=COLOUR_RGB('',0.749019607843137,0.749019607843137,0.749019607843137);
ENDSEC;
END-ISO-10303-21;
