ISO-10303-21;
HEADER;
/* Generated by software containing ST-Developer
 * from STEP Tools, Inc. (www.steptools.com) 
 */

FILE_DESCRIPTION(
/* description */ (''),
/* implementation_level */ '2;1');

FILE_NAME(
/* name */ 'D:\\\X2\96F64EF6\X0\\\M8\X2\7CFB5217\X0\\\\X2\914D4EF6\X0\\\
DSP\\DSP75105-8.stp',
/* time_stamp */ '2025-04-01T15:04:35+08:00',
/* author */ ('1091212-1'),
/* organization */ (''),
/* preprocessor_version */ 'ST-DEVELOPER v15.6',
/* originating_system */ 'Autodesk Inventor 2015',
/* authorisation */ '');

FILE_SCHEMA (('AUTOMOTIVE_DESIGN { 1 0 10303 214 3 1 1 }'));
ENDSEC;

DATA;
#10=MECHANICAL_DESIGN_GEOMETRIC_PRESENTATION_REPRESENTATION('',(#13),#405);
#11=SHAPE_REPRESENTATION_RELATIONSHIP('SRR','None',#414,#12);
#12=ADVANCED_BREP_SHAPE_REPRESENTATION($,(#14),#404);
#13=STYLED_ITEM('',(#423),#14);
#14=MANIFOLD_SOLID_BREP('\X2\5BE69AD4\X0\1',#251);
#15=LINE('',#355,#39);
#16=LINE('',#357,#40);
#17=LINE('',#359,#41);
#18=LINE('',#360,#42);
#19=LINE('',#363,#43);
#20=LINE('',#365,#44);
#21=LINE('',#366,#45);
#22=LINE('',#369,#46);
#23=LINE('',#371,#47);
#24=LINE('',#372,#48);
#25=LINE('',#375,#49);
#26=LINE('',#377,#50);
#27=LINE('',#378,#51);
#28=LINE('',#381,#52);
#29=LINE('',#383,#53);
#30=LINE('',#384,#54);
#31=LINE('',#387,#55);
#32=LINE('',#389,#56);
#33=LINE('',#390,#57);
#34=LINE('',#393,#58);
#35=LINE('',#395,#59);
#36=LINE('',#396,#60);
#37=LINE('',#398,#61);
#38=LINE('',#399,#62);
#39=VECTOR('',#294,35.);
#40=VECTOR('',#295,4.5);
#41=VECTOR('',#296,35.);
#42=VECTOR('',#297,4.5);
#43=VECTOR('',#300,40.);
#44=VECTOR('',#301,40.);
#45=VECTOR('',#302,4.5);
#46=VECTOR('',#305,35.);
#47=VECTOR('',#306,35.);
#48=VECTOR('',#307,4.5);
#49=VECTOR('',#310,40.);
#50=VECTOR('',#311,40.);
#51=VECTOR('',#312,4.5);
#52=VECTOR('',#315,35.);
#53=VECTOR('',#316,35.);
#54=VECTOR('',#317,4.5);
#55=VECTOR('',#320,35.);
#56=VECTOR('',#321,35.);
#57=VECTOR('',#322,4.5);
#58=VECTOR('',#325,105.);
#59=VECTOR('',#326,105.);
#60=VECTOR('',#327,4.5);
#61=VECTOR('',#330,35.);
#62=VECTOR('',#331,35.);
#63=PLANE('',#262);
#64=PLANE('',#263);
#65=PLANE('',#264);
#66=PLANE('',#265);
#67=PLANE('',#266);
#68=PLANE('',#267);
#69=PLANE('',#268);
#70=PLANE('',#269);
#71=PLANE('',#270);
#72=PLANE('',#271);
#73=FACE_BOUND('',#96,.T.);
#74=FACE_BOUND('',#98,.T.);
#75=FACE_BOUND('',#100,.T.);
#76=FACE_BOUND('',#110,.T.);
#77=FACE_BOUND('',#111,.T.);
#78=FACE_BOUND('',#112,.T.);
#79=FACE_BOUND('',#114,.T.);
#80=FACE_BOUND('',#115,.T.);
#81=FACE_BOUND('',#116,.T.);
#82=FACE_OUTER_BOUND('',#95,.T.);
#83=FACE_OUTER_BOUND('',#97,.T.);
#84=FACE_OUTER_BOUND('',#99,.T.);
#85=FACE_OUTER_BOUND('',#101,.T.);
#86=FACE_OUTER_BOUND('',#102,.T.);
#87=FACE_OUTER_BOUND('',#103,.T.);
#88=FACE_OUTER_BOUND('',#104,.T.);
#89=FACE_OUTER_BOUND('',#105,.T.);
#90=FACE_OUTER_BOUND('',#106,.T.);
#91=FACE_OUTER_BOUND('',#107,.T.);
#92=FACE_OUTER_BOUND('',#108,.T.);
#93=FACE_OUTER_BOUND('',#109,.T.);
#94=FACE_OUTER_BOUND('',#113,.T.);
#95=EDGE_LOOP('',(#175));
#96=EDGE_LOOP('',(#176));
#97=EDGE_LOOP('',(#177));
#98=EDGE_LOOP('',(#178));
#99=EDGE_LOOP('',(#179));
#100=EDGE_LOOP('',(#180));
#101=EDGE_LOOP('',(#181,#182,#183,#184));
#102=EDGE_LOOP('',(#185,#186,#187,#188));
#103=EDGE_LOOP('',(#189,#190,#191,#192));
#104=EDGE_LOOP('',(#193,#194,#195,#196));
#105=EDGE_LOOP('',(#197,#198,#199,#200));
#106=EDGE_LOOP('',(#201,#202,#203,#204));
#107=EDGE_LOOP('',(#205,#206,#207,#208));
#108=EDGE_LOOP('',(#209,#210,#211,#212));
#109=EDGE_LOOP('',(#213,#214,#215,#216,#217,#218,#219,#220));
#110=EDGE_LOOP('',(#221));
#111=EDGE_LOOP('',(#222));
#112=EDGE_LOOP('',(#223));
#113=EDGE_LOOP('',(#224,#225,#226,#227,#228,#229,#230,#231));
#114=EDGE_LOOP('',(#232));
#115=EDGE_LOOP('',(#233));
#116=EDGE_LOOP('',(#234));
#117=CIRCLE('',#254,4.5);
#118=CIRCLE('',#255,4.5);
#119=CIRCLE('',#257,4.5);
#120=CIRCLE('',#258,4.5);
#121=CIRCLE('',#260,4.5);
#122=CIRCLE('',#261,4.5);
#123=VERTEX_POINT('',#338);
#124=VERTEX_POINT('',#340);
#125=VERTEX_POINT('',#343);
#126=VERTEX_POINT('',#345);
#127=VERTEX_POINT('',#348);
#128=VERTEX_POINT('',#350);
#129=VERTEX_POINT('',#353);
#130=VERTEX_POINT('',#354);
#131=VERTEX_POINT('',#356);
#132=VERTEX_POINT('',#358);
#133=VERTEX_POINT('',#362);
#134=VERTEX_POINT('',#364);
#135=VERTEX_POINT('',#368);
#136=VERTEX_POINT('',#370);
#137=VERTEX_POINT('',#374);
#138=VERTEX_POINT('',#376);
#139=VERTEX_POINT('',#380);
#140=VERTEX_POINT('',#382);
#141=VERTEX_POINT('',#386);
#142=VERTEX_POINT('',#388);
#143=VERTEX_POINT('',#392);
#144=VERTEX_POINT('',#394);
#145=EDGE_CURVE('',#123,#123,#117,.T.);
#146=EDGE_CURVE('',#124,#124,#118,.T.);
#147=EDGE_CURVE('',#125,#125,#119,.T.);
#148=EDGE_CURVE('',#126,#126,#120,.T.);
#149=EDGE_CURVE('',#127,#127,#121,.T.);
#150=EDGE_CURVE('',#128,#128,#122,.T.);
#151=EDGE_CURVE('',#129,#130,#15,.T.);
#152=EDGE_CURVE('',#129,#131,#16,.T.);
#153=EDGE_CURVE('',#132,#131,#17,.T.);
#154=EDGE_CURVE('',#130,#132,#18,.T.);
#155=EDGE_CURVE('',#130,#133,#19,.T.);
#156=EDGE_CURVE('',#134,#132,#20,.T.);
#157=EDGE_CURVE('',#133,#134,#21,.T.);
#158=EDGE_CURVE('',#133,#135,#22,.T.);
#159=EDGE_CURVE('',#136,#134,#23,.T.);
#160=EDGE_CURVE('',#135,#136,#24,.T.);
#161=EDGE_CURVE('',#135,#137,#25,.T.);
#162=EDGE_CURVE('',#138,#136,#26,.T.);
#163=EDGE_CURVE('',#137,#138,#27,.T.);
#164=EDGE_CURVE('',#137,#139,#28,.T.);
#165=EDGE_CURVE('',#140,#138,#29,.T.);
#166=EDGE_CURVE('',#139,#140,#30,.T.);
#167=EDGE_CURVE('',#139,#141,#31,.T.);
#168=EDGE_CURVE('',#142,#140,#32,.T.);
#169=EDGE_CURVE('',#141,#142,#33,.T.);
#170=EDGE_CURVE('',#141,#143,#34,.T.);
#171=EDGE_CURVE('',#144,#142,#35,.T.);
#172=EDGE_CURVE('',#143,#144,#36,.T.);
#173=EDGE_CURVE('',#143,#129,#37,.T.);
#174=EDGE_CURVE('',#131,#144,#38,.T.);
#175=ORIENTED_EDGE('',*,*,#145,.F.);
#176=ORIENTED_EDGE('',*,*,#146,.F.);
#177=ORIENTED_EDGE('',*,*,#147,.F.);
#178=ORIENTED_EDGE('',*,*,#148,.F.);
#179=ORIENTED_EDGE('',*,*,#149,.F.);
#180=ORIENTED_EDGE('',*,*,#150,.F.);
#181=ORIENTED_EDGE('',*,*,#151,.F.);
#182=ORIENTED_EDGE('',*,*,#152,.T.);
#183=ORIENTED_EDGE('',*,*,#153,.F.);
#184=ORIENTED_EDGE('',*,*,#154,.F.);
#185=ORIENTED_EDGE('',*,*,#155,.F.);
#186=ORIENTED_EDGE('',*,*,#154,.T.);
#187=ORIENTED_EDGE('',*,*,#156,.F.);
#188=ORIENTED_EDGE('',*,*,#157,.F.);
#189=ORIENTED_EDGE('',*,*,#158,.F.);
#190=ORIENTED_EDGE('',*,*,#157,.T.);
#191=ORIENTED_EDGE('',*,*,#159,.F.);
#192=ORIENTED_EDGE('',*,*,#160,.F.);
#193=ORIENTED_EDGE('',*,*,#161,.F.);
#194=ORIENTED_EDGE('',*,*,#160,.T.);
#195=ORIENTED_EDGE('',*,*,#162,.F.);
#196=ORIENTED_EDGE('',*,*,#163,.F.);
#197=ORIENTED_EDGE('',*,*,#164,.F.);
#198=ORIENTED_EDGE('',*,*,#163,.T.);
#199=ORIENTED_EDGE('',*,*,#165,.F.);
#200=ORIENTED_EDGE('',*,*,#166,.F.);
#201=ORIENTED_EDGE('',*,*,#167,.F.);
#202=ORIENTED_EDGE('',*,*,#166,.T.);
#203=ORIENTED_EDGE('',*,*,#168,.F.);
#204=ORIENTED_EDGE('',*,*,#169,.F.);
#205=ORIENTED_EDGE('',*,*,#170,.F.);
#206=ORIENTED_EDGE('',*,*,#169,.T.);
#207=ORIENTED_EDGE('',*,*,#171,.F.);
#208=ORIENTED_EDGE('',*,*,#172,.F.);
#209=ORIENTED_EDGE('',*,*,#173,.F.);
#210=ORIENTED_EDGE('',*,*,#172,.T.);
#211=ORIENTED_EDGE('',*,*,#174,.F.);
#212=ORIENTED_EDGE('',*,*,#152,.F.);
#213=ORIENTED_EDGE('',*,*,#173,.T.);
#214=ORIENTED_EDGE('',*,*,#151,.T.);
#215=ORIENTED_EDGE('',*,*,#155,.T.);
#216=ORIENTED_EDGE('',*,*,#158,.T.);
#217=ORIENTED_EDGE('',*,*,#161,.T.);
#218=ORIENTED_EDGE('',*,*,#164,.T.);
#219=ORIENTED_EDGE('',*,*,#167,.T.);
#220=ORIENTED_EDGE('',*,*,#170,.T.);
#221=ORIENTED_EDGE('',*,*,#146,.T.);
#222=ORIENTED_EDGE('',*,*,#148,.T.);
#223=ORIENTED_EDGE('',*,*,#150,.T.);
#224=ORIENTED_EDGE('',*,*,#174,.T.);
#225=ORIENTED_EDGE('',*,*,#171,.T.);
#226=ORIENTED_EDGE('',*,*,#168,.T.);
#227=ORIENTED_EDGE('',*,*,#165,.T.);
#228=ORIENTED_EDGE('',*,*,#162,.T.);
#229=ORIENTED_EDGE('',*,*,#159,.T.);
#230=ORIENTED_EDGE('',*,*,#156,.T.);
#231=ORIENTED_EDGE('',*,*,#153,.T.);
#232=ORIENTED_EDGE('',*,*,#145,.T.);
#233=ORIENTED_EDGE('',*,*,#147,.T.);
#234=ORIENTED_EDGE('',*,*,#149,.T.);
#235=CYLINDRICAL_SURFACE('',#253,4.5);
#236=CYLINDRICAL_SURFACE('',#256,4.5);
#237=CYLINDRICAL_SURFACE('',#259,4.5);
#238=ADVANCED_FACE('',(#82,#73),#235,.F.);
#239=ADVANCED_FACE('',(#83,#74),#236,.F.);
#240=ADVANCED_FACE('',(#84,#75),#237,.F.);
#241=ADVANCED_FACE('',(#85),#63,.T.);
#242=ADVANCED_FACE('',(#86),#64,.T.);
#243=ADVANCED_FACE('',(#87),#65,.T.);
#244=ADVANCED_FACE('',(#88),#66,.T.);
#245=ADVANCED_FACE('',(#89),#67,.T.);
#246=ADVANCED_FACE('',(#90),#68,.T.);
#247=ADVANCED_FACE('',(#91),#69,.T.);
#248=ADVANCED_FACE('',(#92),#70,.T.);
#249=ADVANCED_FACE('',(#93,#76,#77,#78),#71,.F.);
#250=ADVANCED_FACE('',(#94,#79,#80,#81),#72,.T.);
#251=CLOSED_SHELL('',(#238,#239,#240,#241,#242,#243,#244,#245,#246,#247,
#248,#249,#250));
#252=AXIS2_PLACEMENT_3D('placement',#336,#272,#273);
#253=AXIS2_PLACEMENT_3D('',#337,#274,#275);
#254=AXIS2_PLACEMENT_3D('',#339,#276,#277);
#255=AXIS2_PLACEMENT_3D('',#341,#278,#279);
#256=AXIS2_PLACEMENT_3D('',#342,#280,#281);
#257=AXIS2_PLACEMENT_3D('',#344,#282,#283);
#258=AXIS2_PLACEMENT_3D('',#346,#284,#285);
#259=AXIS2_PLACEMENT_3D('',#347,#286,#287);
#260=AXIS2_PLACEMENT_3D('',#349,#288,#289);
#261=AXIS2_PLACEMENT_3D('',#351,#290,#291);
#262=AXIS2_PLACEMENT_3D('',#352,#292,#293);
#263=AXIS2_PLACEMENT_3D('',#361,#298,#299);
#264=AXIS2_PLACEMENT_3D('',#367,#303,#304);
#265=AXIS2_PLACEMENT_3D('',#373,#308,#309);
#266=AXIS2_PLACEMENT_3D('',#379,#313,#314);
#267=AXIS2_PLACEMENT_3D('',#385,#318,#319);
#268=AXIS2_PLACEMENT_3D('',#391,#323,#324);
#269=AXIS2_PLACEMENT_3D('',#397,#328,#329);
#270=AXIS2_PLACEMENT_3D('',#400,#332,#333);
#271=AXIS2_PLACEMENT_3D('',#401,#334,#335);
#272=DIRECTION('axis',(0.,0.,1.));
#273=DIRECTION('refdir',(1.,0.,0.));
#274=DIRECTION('center_axis',(0.,0.,1.));
#275=DIRECTION('ref_axis',(-1.,0.,0.));
#276=DIRECTION('center_axis',(0.,0.,-1.));
#277=DIRECTION('ref_axis',(-1.,0.,0.));
#278=DIRECTION('center_axis',(0.,0.,1.));
#279=DIRECTION('ref_axis',(-1.,0.,0.));
#280=DIRECTION('center_axis',(0.,0.,1.));
#281=DIRECTION('ref_axis',(-1.,0.,0.));
#282=DIRECTION('center_axis',(0.,0.,-1.));
#283=DIRECTION('ref_axis',(-1.,0.,0.));
#284=DIRECTION('center_axis',(0.,0.,1.));
#285=DIRECTION('ref_axis',(-1.,0.,0.));
#286=DIRECTION('center_axis',(0.,0.,1.));
#287=DIRECTION('ref_axis',(-1.,0.,0.));
#288=DIRECTION('center_axis',(0.,0.,-1.));
#289=DIRECTION('ref_axis',(-1.,0.,0.));
#290=DIRECTION('center_axis',(0.,0.,1.));
#291=DIRECTION('ref_axis',(-1.,0.,0.));
#292=DIRECTION('center_axis',(-5.07530525542928E-16,1.,0.));
#293=DIRECTION('ref_axis',(-1.,-7.105427357601E-16,0.));
#294=DIRECTION('',(1.,5.07530525542928E-16,0.));
#295=DIRECTION('',(0.,0.,1.));
#296=DIRECTION('',(-1.,-5.07530525542928E-16,0.));
#297=DIRECTION('',(0.,0.,1.));
#298=DIRECTION('center_axis',(-1.,-4.44089209850062E-16,0.));
#299=DIRECTION('ref_axis',(7.105427357601E-16,-1.,0.));
#300=DIRECTION('',(-4.44089209850062E-16,1.,0.));
#301=DIRECTION('',(4.44089209850062E-16,-1.,0.));
#302=DIRECTION('',(0.,0.,1.));
#303=DIRECTION('center_axis',(0.,1.,0.));
#304=DIRECTION('ref_axis',(-1.,0.,0.));
#305=DIRECTION('',(1.,0.,0.));
#306=DIRECTION('',(-1.,0.,0.));
#307=DIRECTION('',(0.,0.,1.));
#308=DIRECTION('center_axis',(1.,-4.44089209850062E-16,0.));
#309=DIRECTION('ref_axis',(0.,1.,0.));
#310=DIRECTION('',(-4.44089209850062E-16,-1.,0.));
#311=DIRECTION('',(4.44089209850062E-16,1.,0.));
#312=DIRECTION('',(0.,0.,1.));
#313=DIRECTION('center_axis',(5.07530525542928E-16,1.,0.));
#314=DIRECTION('ref_axis',(-1.,7.105427357601E-16,0.));
#315=DIRECTION('',(1.,-5.07530525542928E-16,0.));
#316=DIRECTION('',(-1.,5.07530525542928E-16,0.));
#317=DIRECTION('',(0.,0.,1.));
#318=DIRECTION('center_axis',(1.,0.,0.));
#319=DIRECTION('ref_axis',(0.,1.,0.));
#320=DIRECTION('',(0.,-1.,0.));
#321=DIRECTION('',(0.,1.,0.));
#322=DIRECTION('',(0.,0.,1.));
#323=DIRECTION('center_axis',(0.,-1.,0.));
#324=DIRECTION('ref_axis',(1.,0.,0.));
#325=DIRECTION('',(-1.,0.,0.));
#326=DIRECTION('',(1.,0.,0.));
#327=DIRECTION('',(0.,0.,1.));
#328=DIRECTION('center_axis',(-1.,0.,0.));
#329=DIRECTION('ref_axis',(0.,-1.,0.));
#330=DIRECTION('',(0.,1.,0.));
#331=DIRECTION('',(0.,-1.,0.));
#332=DIRECTION('center_axis',(0.,0.,1.));
#333=DIRECTION('ref_axis',(1.,0.,0.));
#334=DIRECTION('center_axis',(0.,0.,1.));
#335=DIRECTION('ref_axis',(1.,0.,0.));
#336=CARTESIAN_POINT('',(0.,0.,0.));
#337=CARTESIAN_POINT('Origin',(52.5,57.5,0.));
#338=CARTESIAN_POINT('',(57.,57.5,4.5));
#339=CARTESIAN_POINT('Origin',(52.5,57.5,4.5));
#340=CARTESIAN_POINT('',(57.,57.5,0.));
#341=CARTESIAN_POINT('Origin',(52.5,57.5,0.));
#342=CARTESIAN_POINT('Origin',(92.5,17.5,0.));
#343=CARTESIAN_POINT('',(97.,17.5,4.5));
#344=CARTESIAN_POINT('Origin',(92.5,17.5,4.5));
#345=CARTESIAN_POINT('',(97.,17.5,0.));
#346=CARTESIAN_POINT('Origin',(92.5,17.5,0.));
#347=CARTESIAN_POINT('Origin',(12.5,17.5,0.));
#348=CARTESIAN_POINT('',(17.,17.5,4.5));
#349=CARTESIAN_POINT('Origin',(12.5,17.5,4.5));
#350=CARTESIAN_POINT('',(17.,17.5,0.));
#351=CARTESIAN_POINT('Origin',(12.5,17.5,0.));
#352=CARTESIAN_POINT('Origin',(35.,35.,0.));
#353=CARTESIAN_POINT('',(0.,35.,0.));
#354=CARTESIAN_POINT('',(35.,35.,0.));
#355=CARTESIAN_POINT('',(0.,35.,0.));
#356=CARTESIAN_POINT('',(0.,35.,4.5));
#357=CARTESIAN_POINT('',(0.,35.,0.));
#358=CARTESIAN_POINT('',(35.,35.,4.5));
#359=CARTESIAN_POINT('',(0.,35.,4.5));
#360=CARTESIAN_POINT('',(35.,35.,0.));
#361=CARTESIAN_POINT('Origin',(35.,75.,0.));
#362=CARTESIAN_POINT('',(35.,75.,0.));
#363=CARTESIAN_POINT('',(35.,35.,0.));
#364=CARTESIAN_POINT('',(35.,75.,4.5));
#365=CARTESIAN_POINT('',(35.,35.,4.5));
#366=CARTESIAN_POINT('',(35.,75.,0.));
#367=CARTESIAN_POINT('Origin',(70.,75.,0.));
#368=CARTESIAN_POINT('',(70.,75.,0.));
#369=CARTESIAN_POINT('',(35.,75.,0.));
#370=CARTESIAN_POINT('',(70.,75.,4.5));
#371=CARTESIAN_POINT('',(35.,75.,4.5));
#372=CARTESIAN_POINT('',(70.,75.,0.));
#373=CARTESIAN_POINT('Origin',(70.,35.,0.));
#374=CARTESIAN_POINT('',(70.,35.,0.));
#375=CARTESIAN_POINT('',(70.,75.,0.));
#376=CARTESIAN_POINT('',(70.,35.,4.5));
#377=CARTESIAN_POINT('',(70.,75.,4.5));
#378=CARTESIAN_POINT('',(70.,35.,0.));
#379=CARTESIAN_POINT('Origin',(105.,35.,0.));
#380=CARTESIAN_POINT('',(105.,35.,0.));
#381=CARTESIAN_POINT('',(70.,35.,0.));
#382=CARTESIAN_POINT('',(105.,35.,4.5));
#383=CARTESIAN_POINT('',(70.,35.,4.5));
#384=CARTESIAN_POINT('',(105.,35.,0.));
#385=CARTESIAN_POINT('Origin',(105.,0.,0.));
#386=CARTESIAN_POINT('',(105.,0.,0.));
#387=CARTESIAN_POINT('',(105.,35.,0.));
#388=CARTESIAN_POINT('',(105.,0.,4.5));
#389=CARTESIAN_POINT('',(105.,35.,4.5));
#390=CARTESIAN_POINT('',(105.,0.,0.));
#391=CARTESIAN_POINT('Origin',(0.,0.,0.));
#392=CARTESIAN_POINT('',(0.,0.,0.));
#393=CARTESIAN_POINT('',(105.,0.,0.));
#394=CARTESIAN_POINT('',(0.,0.,4.5));
#395=CARTESIAN_POINT('',(105.,0.,4.5));
#396=CARTESIAN_POINT('',(0.,0.,0.));
#397=CARTESIAN_POINT('Origin',(0.,35.,0.));
#398=CARTESIAN_POINT('',(0.,0.,0.));
#399=CARTESIAN_POINT('',(0.,0.,4.5));
#400=CARTESIAN_POINT('Origin',(52.5,29.7222222222222,0.));
#401=CARTESIAN_POINT('Origin',(52.5,29.7222222222222,4.5));
#402=UNCERTAINTY_MEASURE_WITH_UNIT(LENGTH_MEASURE(0.01),#406,
'DISTANCE_ACCURACY_VALUE',
'Maximum model space distance between geometric entities at asserted c
onnectivities');
#403=UNCERTAINTY_MEASURE_WITH_UNIT(LENGTH_MEASURE(1.E-6),#406,
'DISTANCE_ACCURACY_VALUE',
'Maximum model space distance between geometric entities at asserted c
onnectivities');
#404=(
GEOMETRIC_REPRESENTATION_CONTEXT(3)
GLOBAL_UNCERTAINTY_ASSIGNED_CONTEXT((#402))
GLOBAL_UNIT_ASSIGNED_CONTEXT((#406,#409,#407))
REPRESENTATION_CONTEXT('','3D')
);
#405=(
GEOMETRIC_REPRESENTATION_CONTEXT(3)
GLOBAL_UNCERTAINTY_ASSIGNED_CONTEXT((#403))
GLOBAL_UNIT_ASSIGNED_CONTEXT((#406,#409,#407))
REPRESENTATION_CONTEXT('','3D')
);
#406=(
LENGTH_UNIT()
NAMED_UNIT(*)
SI_UNIT(.MILLI.,.METRE.)
);
#407=(
NAMED_UNIT(*)
SI_UNIT($,.STERADIAN.)
SOLID_ANGLE_UNIT()
);
#408=DIMENSIONAL_EXPONENTS(0.,0.,0.,0.,0.,0.,0.);
#409=(
CONVERSION_BASED_UNIT('degree',#411)
NAMED_UNIT(#408)
PLANE_ANGLE_UNIT()
);
#410=(
NAMED_UNIT(*)
PLANE_ANGLE_UNIT()
SI_UNIT($,.RADIAN.)
);
#411=PLANE_ANGLE_MEASURE_WITH_UNIT(PLANE_ANGLE_MEASURE(0.01745329252),#410);
#412=SHAPE_DEFINITION_REPRESENTATION(#413,#414);
#413=PRODUCT_DEFINITION_SHAPE('',$,#416);
#414=SHAPE_REPRESENTATION('',(#252),#404);
#415=PRODUCT_DEFINITION_CONTEXT('part definition',#420,'design');
#416=PRODUCT_DEFINITION('DSP75105-8','DSP75105-8',#417,#415);
#417=PRODUCT_DEFINITION_FORMATION('',$,#422);
#418=PRODUCT_RELATED_PRODUCT_CATEGORY('DSP75105-8','DSP75105-8',(#422));
#419=APPLICATION_PROTOCOL_DEFINITION('international standard',
'automotive_design',2009,#420);
#420=APPLICATION_CONTEXT(
'Core Data for Automotive Mechanical Design Process');
#421=PRODUCT_CONTEXT('part definition',#420,'mechanical');
#422=PRODUCT('DSP75105-8','DSP75105-8',$,(#421));
#423=PRESENTATION_STYLE_ASSIGNMENT((#424));
#424=SURFACE_STYLE_USAGE(.BOTH.,#425);
#425=SURFACE_SIDE_STYLE($,(#426));
#426=SURFACE_STYLE_FILL_AREA(#427);
#427=FILL_AREA_STYLE($,(#428));
#428=FILL_AREA_STYLE_COLOUR($,#429);
#429=COLOUR_RGB('',0.749019607843137,0.749019607843137,0.749019607843137);
ENDSEC;
END-ISO-10303-21;
