ISO-10303-21;
HEADER;
/* Generated by software containing ST-Developer
 * from STEP Tools, Inc. (www.steptools.com) 
 */

FILE_DESCRIPTION(
/* description */ (''),
/* implementation_level */ '2;1');

FILE_NAME(
/* name */ 'D:\\\X2\96F64EF6\X0\\\M8\X2\7CFB5217\X0\\\\X2\914D4EF6\X0\\\
DSP\\DSP3575-8.stp',
/* time_stamp */ '2025-03-18T16:01:12+08:00',
/* author */ ('1091212-1'),
/* organization */ (''),
/* preprocessor_version */ 'ST-DEVELOPER v15.6',
/* originating_system */ 'Autodesk Inventor 2015',
/* authorisation */ '');

FILE_SCHEMA (('AUTOMOTIVE_DESIGN { 1 0 10303 214 3 1 1 }'));
ENDSEC;

DATA;
#10=MECHANICAL_DESIGN_GEOMETRIC_PRESENTATION_REPRESENTATION('',(#13),#485);
#11=SHAPE_REPRESENTATION_RELATIONSHIP('SRR','None',#494,#12);
#12=ADVANCED_BREP_SHAPE_REPRESENTATION($,(#14),#484);
#13=STYLED_ITEM('',(#503),#14);
#14=MANIFOLD_SOLID_BREP('\X2\5BE69AD4\X0\2',#287);
#15=FACE_BOUND('',#45,.T.);
#16=FACE_BOUND('',#46,.T.);
#17=FACE_BOUND('',#57,.T.);
#18=FACE_BOUND('',#61,.T.);
#19=FACE_BOUND('',#62,.T.);
#20=PLANE('',#292);
#21=PLANE('',#299);
#22=PLANE('',#304);
#23=PLANE('',#309);
#24=PLANE('',#312);
#25=PLANE('',#315);
#26=PLANE('',#316);
#27=PLANE('',#317);
#28=FACE_OUTER_BOUND('',#43,.T.);
#29=FACE_OUTER_BOUND('',#44,.T.);
#30=FACE_OUTER_BOUND('',#47,.T.);
#31=FACE_OUTER_BOUND('',#48,.T.);
#32=FACE_OUTER_BOUND('',#49,.T.);
#33=FACE_OUTER_BOUND('',#50,.T.);
#34=FACE_OUTER_BOUND('',#51,.T.);
#35=FACE_OUTER_BOUND('',#52,.T.);
#36=FACE_OUTER_BOUND('',#53,.T.);
#37=FACE_OUTER_BOUND('',#54,.T.);
#38=FACE_OUTER_BOUND('',#55,.T.);
#39=FACE_OUTER_BOUND('',#56,.T.);
#40=FACE_OUTER_BOUND('',#58,.T.);
#41=FACE_OUTER_BOUND('',#59,.T.);
#42=FACE_OUTER_BOUND('',#60,.T.);
#43=EDGE_LOOP('',(#189,#190,#191,#192));
#44=EDGE_LOOP('',(#193,#194,#195,#196,#197,#198,#199,#200));
#45=EDGE_LOOP('',(#201,#202,#203,#204));
#46=EDGE_LOOP('',(#205));
#47=EDGE_LOOP('',(#206,#207,#208,#209));
#48=EDGE_LOOP('',(#210,#211,#212,#213));
#49=EDGE_LOOP('',(#214,#215,#216,#217));
#50=EDGE_LOOP('',(#218,#219,#220,#221));
#51=EDGE_LOOP('',(#222,#223,#224,#225));
#52=EDGE_LOOP('',(#226,#227,#228,#229));
#53=EDGE_LOOP('',(#230,#231,#232,#233));
#54=EDGE_LOOP('',(#234,#235,#236,#237));
#55=EDGE_LOOP('',(#238,#239,#240,#241));
#56=EDGE_LOOP('',(#242));
#57=EDGE_LOOP('',(#243));
#58=EDGE_LOOP('',(#244,#245,#246,#247));
#59=EDGE_LOOP('',(#248,#249,#250,#251));
#60=EDGE_LOOP('',(#252,#253,#254,#255,#256,#257,#258,#259));
#61=EDGE_LOOP('',(#260,#261,#262,#263));
#62=EDGE_LOOP('',(#264));
#63=LINE('',#408,#87);
#64=LINE('',#411,#88);
#65=LINE('',#414,#89);
#66=LINE('',#418,#90);
#67=LINE('',#422,#91);
#68=LINE('',#425,#92);
#69=LINE('',#430,#93);
#70=LINE('',#433,#94);
#71=LINE('',#438,#95);
#72=LINE('',#439,#96);
#73=LINE('',#443,#97);
#74=LINE('',#446,#98);
#75=LINE('',#449,#99);
#76=LINE('',#452,#100);
#77=LINE('',#453,#101);
#78=LINE('',#456,#102);
#79=LINE('',#462,#103);
#80=LINE('',#463,#104);
#81=LINE('',#466,#105);
#82=LINE('',#467,#106);
#83=LINE('',#471,#107);
#84=LINE('',#473,#108);
#85=LINE('',#478,#109);
#86=LINE('',#480,#110);
#87=VECTOR('',#324,4.5);
#88=VECTOR('',#327,4.5);
#89=VECTOR('',#330,31.);
#90=VECTOR('',#333,71.);
#91=VECTOR('',#336,31.);
#92=VECTOR('',#339,71.);
#93=VECTOR('',#342,6.);
#94=VECTOR('',#345,6.);
#95=VECTOR('',#350,31.);
#96=VECTOR('',#351,4.5);
#97=VECTOR('',#356,4.5);
#98=VECTOR('',#359,4.5);
#99=VECTOR('',#362,4.5);
#100=VECTOR('',#365,4.5);
#101=VECTOR('',#366,31.);
#102=VECTOR('',#369,4.5);
#103=VECTOR('',#376,4.5);
#104=VECTOR('',#377,4.5);
#105=VECTOR('',#380,6.);
#106=VECTOR('',#381,4.5);
#107=VECTOR('',#386,4.5);
#108=VECTOR('',#389,6.);
#109=VECTOR('',#396,71.);
#110=VECTOR('',#399,71.);
#111=CIRCLE('',#290,2.);
#112=CIRCLE('',#291,2.);
#113=CIRCLE('',#293,2.);
#114=CIRCLE('',#294,2.);
#115=CIRCLE('',#295,2.);
#116=CIRCLE('',#296,4.5);
#117=CIRCLE('',#297,4.5);
#118=CIRCLE('',#298,4.5);
#119=CIRCLE('',#301,2.);
#120=CIRCLE('',#303,2.);
#121=CIRCLE('',#306,2.);
#122=CIRCLE('',#308,4.5);
#123=CIRCLE('',#311,4.5);
#124=CIRCLE('',#314,4.5);
#125=VERTEX_POINT('',#404);
#126=VERTEX_POINT('',#405);
#127=VERTEX_POINT('',#407);
#128=VERTEX_POINT('',#409);
#129=VERTEX_POINT('',#413);
#130=VERTEX_POINT('',#415);
#131=VERTEX_POINT('',#417);
#132=VERTEX_POINT('',#419);
#133=VERTEX_POINT('',#421);
#134=VERTEX_POINT('',#423);
#135=VERTEX_POINT('',#426);
#136=VERTEX_POINT('',#427);
#137=VERTEX_POINT('',#429);
#138=VERTEX_POINT('',#431);
#139=VERTEX_POINT('',#434);
#140=VERTEX_POINT('',#437);
#141=VERTEX_POINT('',#441);
#142=VERTEX_POINT('',#445);
#143=VERTEX_POINT('',#447);
#144=VERTEX_POINT('',#451);
#145=VERTEX_POINT('',#455);
#146=VERTEX_POINT('',#459);
#147=VERTEX_POINT('',#460);
#148=VERTEX_POINT('',#465);
#149=VERTEX_POINT('',#469);
#150=VERTEX_POINT('',#475);
#151=EDGE_CURVE('',#125,#126,#111,.T.);
#152=EDGE_CURVE('',#126,#127,#63,.T.);
#153=EDGE_CURVE('',#127,#128,#112,.T.);
#154=EDGE_CURVE('',#128,#125,#64,.T.);
#155=EDGE_CURVE('',#125,#129,#65,.T.);
#156=EDGE_CURVE('',#130,#129,#113,.T.);
#157=EDGE_CURVE('',#130,#131,#66,.T.);
#158=EDGE_CURVE('',#132,#131,#114,.T.);
#159=EDGE_CURVE('',#132,#133,#67,.T.);
#160=EDGE_CURVE('',#134,#133,#115,.T.);
#161=EDGE_CURVE('',#134,#126,#68,.T.);
#162=EDGE_CURVE('',#135,#136,#116,.T.);
#163=EDGE_CURVE('',#136,#137,#69,.T.);
#164=EDGE_CURVE('',#137,#138,#117,.T.);
#165=EDGE_CURVE('',#138,#135,#70,.T.);
#166=EDGE_CURVE('',#139,#139,#118,.T.);
#167=EDGE_CURVE('',#140,#128,#71,.T.);
#168=EDGE_CURVE('',#129,#140,#72,.T.);
#169=EDGE_CURVE('',#140,#141,#119,.T.);
#170=EDGE_CURVE('',#141,#130,#73,.T.);
#171=EDGE_CURVE('',#133,#142,#74,.T.);
#172=EDGE_CURVE('',#142,#143,#120,.T.);
#173=EDGE_CURVE('',#143,#134,#75,.T.);
#174=EDGE_CURVE('',#144,#132,#76,.T.);
#175=EDGE_CURVE('',#142,#144,#77,.T.);
#176=EDGE_CURVE('',#131,#145,#78,.T.);
#177=EDGE_CURVE('',#145,#144,#121,.T.);
#178=EDGE_CURVE('',#146,#147,#122,.T.);
#179=EDGE_CURVE('',#146,#136,#79,.T.);
#180=EDGE_CURVE('',#147,#135,#80,.T.);
#181=EDGE_CURVE('',#148,#146,#81,.T.);
#182=EDGE_CURVE('',#148,#137,#82,.T.);
#183=EDGE_CURVE('',#149,#148,#123,.T.);
#184=EDGE_CURVE('',#149,#138,#83,.T.);
#185=EDGE_CURVE('',#147,#149,#84,.T.);
#186=EDGE_CURVE('',#150,#150,#124,.T.);
#187=EDGE_CURVE('',#145,#141,#85,.T.);
#188=EDGE_CURVE('',#127,#143,#86,.T.);
#189=ORIENTED_EDGE('',*,*,#151,.T.);
#190=ORIENTED_EDGE('',*,*,#152,.T.);
#191=ORIENTED_EDGE('',*,*,#153,.T.);
#192=ORIENTED_EDGE('',*,*,#154,.T.);
#193=ORIENTED_EDGE('',*,*,#151,.F.);
#194=ORIENTED_EDGE('',*,*,#155,.T.);
#195=ORIENTED_EDGE('',*,*,#156,.F.);
#196=ORIENTED_EDGE('',*,*,#157,.T.);
#197=ORIENTED_EDGE('',*,*,#158,.F.);
#198=ORIENTED_EDGE('',*,*,#159,.T.);
#199=ORIENTED_EDGE('',*,*,#160,.F.);
#200=ORIENTED_EDGE('',*,*,#161,.T.);
#201=ORIENTED_EDGE('',*,*,#162,.T.);
#202=ORIENTED_EDGE('',*,*,#163,.T.);
#203=ORIENTED_EDGE('',*,*,#164,.T.);
#204=ORIENTED_EDGE('',*,*,#165,.T.);
#205=ORIENTED_EDGE('',*,*,#166,.T.);
#206=ORIENTED_EDGE('',*,*,#154,.F.);
#207=ORIENTED_EDGE('',*,*,#167,.F.);
#208=ORIENTED_EDGE('',*,*,#168,.F.);
#209=ORIENTED_EDGE('',*,*,#155,.F.);
#210=ORIENTED_EDGE('',*,*,#156,.T.);
#211=ORIENTED_EDGE('',*,*,#168,.T.);
#212=ORIENTED_EDGE('',*,*,#169,.T.);
#213=ORIENTED_EDGE('',*,*,#170,.T.);
#214=ORIENTED_EDGE('',*,*,#160,.T.);
#215=ORIENTED_EDGE('',*,*,#171,.T.);
#216=ORIENTED_EDGE('',*,*,#172,.T.);
#217=ORIENTED_EDGE('',*,*,#173,.T.);
#218=ORIENTED_EDGE('',*,*,#171,.F.);
#219=ORIENTED_EDGE('',*,*,#159,.F.);
#220=ORIENTED_EDGE('',*,*,#174,.F.);
#221=ORIENTED_EDGE('',*,*,#175,.F.);
#222=ORIENTED_EDGE('',*,*,#158,.T.);
#223=ORIENTED_EDGE('',*,*,#176,.T.);
#224=ORIENTED_EDGE('',*,*,#177,.T.);
#225=ORIENTED_EDGE('',*,*,#174,.T.);
#226=ORIENTED_EDGE('',*,*,#178,.F.);
#227=ORIENTED_EDGE('',*,*,#179,.T.);
#228=ORIENTED_EDGE('',*,*,#162,.F.);
#229=ORIENTED_EDGE('',*,*,#180,.F.);
#230=ORIENTED_EDGE('',*,*,#181,.F.);
#231=ORIENTED_EDGE('',*,*,#182,.T.);
#232=ORIENTED_EDGE('',*,*,#163,.F.);
#233=ORIENTED_EDGE('',*,*,#179,.F.);
#234=ORIENTED_EDGE('',*,*,#183,.F.);
#235=ORIENTED_EDGE('',*,*,#184,.T.);
#236=ORIENTED_EDGE('',*,*,#164,.F.);
#237=ORIENTED_EDGE('',*,*,#182,.F.);
#238=ORIENTED_EDGE('',*,*,#185,.F.);
#239=ORIENTED_EDGE('',*,*,#180,.T.);
#240=ORIENTED_EDGE('',*,*,#165,.F.);
#241=ORIENTED_EDGE('',*,*,#184,.F.);
#242=ORIENTED_EDGE('',*,*,#166,.F.);
#243=ORIENTED_EDGE('',*,*,#186,.F.);
#244=ORIENTED_EDGE('',*,*,#170,.F.);
#245=ORIENTED_EDGE('',*,*,#187,.F.);
#246=ORIENTED_EDGE('',*,*,#176,.F.);
#247=ORIENTED_EDGE('',*,*,#157,.F.);
#248=ORIENTED_EDGE('',*,*,#152,.F.);
#249=ORIENTED_EDGE('',*,*,#161,.F.);
#250=ORIENTED_EDGE('',*,*,#173,.F.);
#251=ORIENTED_EDGE('',*,*,#188,.F.);
#252=ORIENTED_EDGE('',*,*,#153,.F.);
#253=ORIENTED_EDGE('',*,*,#188,.T.);
#254=ORIENTED_EDGE('',*,*,#172,.F.);
#255=ORIENTED_EDGE('',*,*,#175,.T.);
#256=ORIENTED_EDGE('',*,*,#177,.F.);
#257=ORIENTED_EDGE('',*,*,#187,.T.);
#258=ORIENTED_EDGE('',*,*,#169,.F.);
#259=ORIENTED_EDGE('',*,*,#167,.T.);
#260=ORIENTED_EDGE('',*,*,#178,.T.);
#261=ORIENTED_EDGE('',*,*,#185,.T.);
#262=ORIENTED_EDGE('',*,*,#183,.T.);
#263=ORIENTED_EDGE('',*,*,#181,.T.);
#264=ORIENTED_EDGE('',*,*,#186,.T.);
#265=CYLINDRICAL_SURFACE('',#289,2.);
#266=CYLINDRICAL_SURFACE('',#300,2.);
#267=CYLINDRICAL_SURFACE('',#302,2.);
#268=CYLINDRICAL_SURFACE('',#305,2.);
#269=CYLINDRICAL_SURFACE('',#307,4.5);
#270=CYLINDRICAL_SURFACE('',#310,4.5);
#271=CYLINDRICAL_SURFACE('',#313,4.5);
#272=ADVANCED_FACE('',(#28),#265,.T.);
#273=ADVANCED_FACE('',(#29,#15,#16),#20,.T.);
#274=ADVANCED_FACE('',(#30),#21,.T.);
#275=ADVANCED_FACE('',(#31),#266,.T.);
#276=ADVANCED_FACE('',(#32),#267,.T.);
#277=ADVANCED_FACE('',(#33),#22,.T.);
#278=ADVANCED_FACE('',(#34),#268,.T.);
#279=ADVANCED_FACE('',(#35),#269,.F.);
#280=ADVANCED_FACE('',(#36),#23,.F.);
#281=ADVANCED_FACE('',(#37),#270,.F.);
#282=ADVANCED_FACE('',(#38),#24,.F.);
#283=ADVANCED_FACE('',(#39,#17),#271,.F.);
#284=ADVANCED_FACE('',(#40),#25,.T.);
#285=ADVANCED_FACE('',(#41),#26,.T.);
#286=ADVANCED_FACE('',(#42,#18,#19),#27,.F.);
#287=CLOSED_SHELL('',(#272,#273,#274,#275,#276,#277,#278,#279,#280,#281,
#282,#283,#284,#285,#286));
#288=AXIS2_PLACEMENT_3D('placement',#402,#318,#319);
#289=AXIS2_PLACEMENT_3D('',#403,#320,#321);
#290=AXIS2_PLACEMENT_3D('',#406,#322,#323);
#291=AXIS2_PLACEMENT_3D('',#410,#325,#326);
#292=AXIS2_PLACEMENT_3D('',#412,#328,#329);
#293=AXIS2_PLACEMENT_3D('',#416,#331,#332);
#294=AXIS2_PLACEMENT_3D('',#420,#334,#335);
#295=AXIS2_PLACEMENT_3D('',#424,#337,#338);
#296=AXIS2_PLACEMENT_3D('',#428,#340,#341);
#297=AXIS2_PLACEMENT_3D('',#432,#343,#344);
#298=AXIS2_PLACEMENT_3D('',#435,#346,#347);
#299=AXIS2_PLACEMENT_3D('',#436,#348,#349);
#300=AXIS2_PLACEMENT_3D('',#440,#352,#353);
#301=AXIS2_PLACEMENT_3D('',#442,#354,#355);
#302=AXIS2_PLACEMENT_3D('',#444,#357,#358);
#303=AXIS2_PLACEMENT_3D('',#448,#360,#361);
#304=AXIS2_PLACEMENT_3D('',#450,#363,#364);
#305=AXIS2_PLACEMENT_3D('',#454,#367,#368);
#306=AXIS2_PLACEMENT_3D('',#457,#370,#371);
#307=AXIS2_PLACEMENT_3D('',#458,#372,#373);
#308=AXIS2_PLACEMENT_3D('',#461,#374,#375);
#309=AXIS2_PLACEMENT_3D('',#464,#378,#379);
#310=AXIS2_PLACEMENT_3D('',#468,#382,#383);
#311=AXIS2_PLACEMENT_3D('',#470,#384,#385);
#312=AXIS2_PLACEMENT_3D('',#472,#387,#388);
#313=AXIS2_PLACEMENT_3D('',#474,#390,#391);
#314=AXIS2_PLACEMENT_3D('',#476,#392,#393);
#315=AXIS2_PLACEMENT_3D('',#477,#394,#395);
#316=AXIS2_PLACEMENT_3D('',#479,#397,#398);
#317=AXIS2_PLACEMENT_3D('',#481,#400,#401);
#318=DIRECTION('axis',(0.,0.,1.));
#319=DIRECTION('refdir',(1.,0.,0.));
#320=DIRECTION('center_axis',(0.,0.,1.));
#321=DIRECTION('ref_axis',(0.707106781186548,0.707106781186548,0.));
#322=DIRECTION('center_axis',(0.,0.,-1.));
#323=DIRECTION('ref_axis',(0.707106781186548,0.707106781186548,0.));
#324=DIRECTION('',(0.,0.,-1.));
#325=DIRECTION('center_axis',(0.,0.,1.));
#326=DIRECTION('ref_axis',(0.707106781186548,0.707106781186548,0.));
#327=DIRECTION('',(0.,0.,1.));
#328=DIRECTION('center_axis',(0.,0.,1.));
#329=DIRECTION('ref_axis',(1.,0.,0.));
#330=DIRECTION('',(-1.,0.,0.));
#331=DIRECTION('center_axis',(0.,0.,-1.));
#332=DIRECTION('ref_axis',(-0.707106781186548,0.707106781186548,0.));
#333=DIRECTION('',(0.,-1.,0.));
#334=DIRECTION('center_axis',(0.,0.,-1.));
#335=DIRECTION('ref_axis',(-0.707106781186548,-0.707106781186548,0.));
#336=DIRECTION('',(1.,0.,0.));
#337=DIRECTION('center_axis',(0.,0.,-1.));
#338=DIRECTION('ref_axis',(0.707106781186548,-0.707106781186548,0.));
#339=DIRECTION('',(0.,1.,0.));
#340=DIRECTION('center_axis',(0.,0.,-1.));
#341=DIRECTION('ref_axis',(1.,0.,0.));
#342=DIRECTION('',(-9.25185853854297E-17,-1.,0.));
#343=DIRECTION('center_axis',(0.,0.,-1.));
#344=DIRECTION('ref_axis',(-1.,0.,0.));
#345=DIRECTION('',(0.,1.,0.));
#346=DIRECTION('center_axis',(0.,0.,-1.));
#347=DIRECTION('ref_axis',(-1.,0.,0.));
#348=DIRECTION('center_axis',(0.,1.,0.));
#349=DIRECTION('ref_axis',(-1.,0.,0.));
#350=DIRECTION('',(1.,0.,0.));
#351=DIRECTION('',(0.,0.,-1.));
#352=DIRECTION('center_axis',(0.,0.,1.));
#353=DIRECTION('ref_axis',(-0.707106781186548,0.707106781186548,0.));
#354=DIRECTION('center_axis',(0.,0.,1.));
#355=DIRECTION('ref_axis',(-0.707106781186548,0.707106781186548,0.));
#356=DIRECTION('',(0.,0.,1.));
#357=DIRECTION('center_axis',(0.,0.,1.));
#358=DIRECTION('ref_axis',(0.707106781186548,-0.707106781186548,0.));
#359=DIRECTION('',(0.,0.,-1.));
#360=DIRECTION('center_axis',(0.,0.,1.));
#361=DIRECTION('ref_axis',(0.707106781186548,-0.707106781186548,0.));
#362=DIRECTION('',(0.,0.,1.));
#363=DIRECTION('center_axis',(0.,-1.,0.));
#364=DIRECTION('ref_axis',(1.,0.,0.));
#365=DIRECTION('',(0.,0.,1.));
#366=DIRECTION('',(-1.,0.,0.));
#367=DIRECTION('center_axis',(0.,0.,1.));
#368=DIRECTION('ref_axis',(-0.707106781186548,-0.707106781186548,0.));
#369=DIRECTION('',(0.,0.,-1.));
#370=DIRECTION('center_axis',(0.,0.,1.));
#371=DIRECTION('ref_axis',(-0.707106781186548,-0.707106781186548,0.));
#372=DIRECTION('center_axis',(0.,0.,1.));
#373=DIRECTION('ref_axis',(1.,0.,0.));
#374=DIRECTION('center_axis',(0.,0.,1.));
#375=DIRECTION('ref_axis',(1.,0.,0.));
#376=DIRECTION('',(0.,0.,1.));
#377=DIRECTION('',(0.,0.,1.));
#378=DIRECTION('center_axis',(1.,-9.25185853854297E-17,0.));
#379=DIRECTION('ref_axis',(8.88178419700125E-17,1.,0.));
#380=DIRECTION('',(9.25185853854297E-17,1.,0.));
#381=DIRECTION('',(0.,0.,1.));
#382=DIRECTION('center_axis',(0.,0.,1.));
#383=DIRECTION('ref_axis',(-1.,0.,0.));
#384=DIRECTION('center_axis',(0.,0.,1.));
#385=DIRECTION('ref_axis',(-1.,0.,0.));
#386=DIRECTION('',(0.,0.,1.));
#387=DIRECTION('center_axis',(-1.,0.,0.));
#388=DIRECTION('ref_axis',(0.,-1.,0.));
#389=DIRECTION('',(0.,-1.,0.));
#390=DIRECTION('center_axis',(0.,0.,1.));
#391=DIRECTION('ref_axis',(-1.,0.,0.));
#392=DIRECTION('center_axis',(0.,0.,1.));
#393=DIRECTION('ref_axis',(-1.,0.,0.));
#394=DIRECTION('center_axis',(-1.,0.,0.));
#395=DIRECTION('ref_axis',(0.,-1.,0.));
#396=DIRECTION('',(0.,1.,0.));
#397=DIRECTION('center_axis',(1.,0.,0.));
#398=DIRECTION('ref_axis',(0.,1.,0.));
#399=DIRECTION('',(0.,-1.,0.));
#400=DIRECTION('center_axis',(0.,0.,1.));
#401=DIRECTION('ref_axis',(1.,0.,0.));
#402=CARTESIAN_POINT('',(0.,0.,0.));
#403=CARTESIAN_POINT('Origin',(15.5,35.5,0.));
#404=CARTESIAN_POINT('',(15.5,37.5,4.5));
#405=CARTESIAN_POINT('',(17.5,35.5,4.5));
#406=CARTESIAN_POINT('Origin',(15.5,35.5,4.5));
#407=CARTESIAN_POINT('',(17.5,35.5,0.));
#408=CARTESIAN_POINT('',(17.5,35.5,0.));
#409=CARTESIAN_POINT('',(15.5,37.5,0.));
#410=CARTESIAN_POINT('Origin',(15.5,35.5,0.));
#411=CARTESIAN_POINT('',(15.5,37.5,0.));
#412=CARTESIAN_POINT('Origin',(0.,0.,4.5));
#413=CARTESIAN_POINT('',(-15.5,37.5,4.5));
#414=CARTESIAN_POINT('',(-17.5,37.5,4.5));
#415=CARTESIAN_POINT('',(-17.5,35.5,4.5));
#416=CARTESIAN_POINT('Origin',(-15.5,35.5,4.5));
#417=CARTESIAN_POINT('',(-17.5,-35.5,4.5));
#418=CARTESIAN_POINT('',(-17.5,-37.5,4.5));
#419=CARTESIAN_POINT('',(-15.5,-37.5,4.5));
#420=CARTESIAN_POINT('Origin',(-15.5,-35.5,4.5));
#421=CARTESIAN_POINT('',(15.5,-37.5,4.5));
#422=CARTESIAN_POINT('',(17.5,-37.5,4.5));
#423=CARTESIAN_POINT('',(17.5,-35.5,4.5));
#424=CARTESIAN_POINT('Origin',(15.5,-35.5,4.5));
#425=CARTESIAN_POINT('',(17.5,37.5,4.5));
#426=CARTESIAN_POINT('',(-4.5,23.,4.5));
#427=CARTESIAN_POINT('',(4.5,23.,4.5));
#428=CARTESIAN_POINT('Origin',(-6.49280197593321E-16,23.,4.5));
#429=CARTESIAN_POINT('',(4.5,17.,4.5));
#430=CARTESIAN_POINT('',(4.5,8.5,4.5));
#431=CARTESIAN_POINT('',(-4.5,17.,4.5));
#432=CARTESIAN_POINT('Origin',(-6.49280197593322E-16,17.,4.5));
#433=CARTESIAN_POINT('',(-4.5,11.5,4.5));
#434=CARTESIAN_POINT('',(4.50000000000001,-20.,4.5));
#435=CARTESIAN_POINT('Origin',(8.13091430672776E-15,-20.,4.5));
#436=CARTESIAN_POINT('Origin',(17.5,37.5,0.));
#437=CARTESIAN_POINT('',(-15.5,37.5,0.));
#438=CARTESIAN_POINT('',(-17.5,37.5,0.));
#439=CARTESIAN_POINT('',(-15.5,37.5,0.));
#440=CARTESIAN_POINT('Origin',(-15.5,35.5,0.));
#441=CARTESIAN_POINT('',(-17.5,35.5,0.));
#442=CARTESIAN_POINT('Origin',(-15.5,35.5,0.));
#443=CARTESIAN_POINT('',(-17.5,35.5,0.));
#444=CARTESIAN_POINT('Origin',(15.5,-35.5,0.));
#445=CARTESIAN_POINT('',(15.5,-37.5,0.));
#446=CARTESIAN_POINT('',(15.5,-37.5,0.));
#447=CARTESIAN_POINT('',(17.5,-35.5,0.));
#448=CARTESIAN_POINT('Origin',(15.5,-35.5,0.));
#449=CARTESIAN_POINT('',(17.5,-35.5,0.));
#450=CARTESIAN_POINT('Origin',(-17.5,-37.5,0.));
#451=CARTESIAN_POINT('',(-15.5,-37.5,0.));
#452=CARTESIAN_POINT('',(-15.5,-37.5,0.));
#453=CARTESIAN_POINT('',(17.5,-37.5,0.));
#454=CARTESIAN_POINT('Origin',(-15.5,-35.5,0.));
#455=CARTESIAN_POINT('',(-17.5,-35.5,0.));
#456=CARTESIAN_POINT('',(-17.5,-35.5,0.));
#457=CARTESIAN_POINT('Origin',(-15.5,-35.5,0.));
#458=CARTESIAN_POINT('Origin',(-6.49280197593321E-16,23.,0.));
#459=CARTESIAN_POINT('',(4.5,23.,0.));
#460=CARTESIAN_POINT('',(-4.5,23.,0.));
#461=CARTESIAN_POINT('Origin',(-6.49280197593321E-16,23.,0.));
#462=CARTESIAN_POINT('',(4.5,23.,0.));
#463=CARTESIAN_POINT('',(-4.5,23.,0.));
#464=CARTESIAN_POINT('Origin',(4.5,17.,0.));
#465=CARTESIAN_POINT('',(4.5,17.,0.));
#466=CARTESIAN_POINT('',(4.5,8.5,0.));
#467=CARTESIAN_POINT('',(4.5,17.,0.));
#468=CARTESIAN_POINT('Origin',(-6.49280197593322E-16,17.,0.));
#469=CARTESIAN_POINT('',(-4.5,17.,0.));
#470=CARTESIAN_POINT('Origin',(-6.49280197593322E-16,17.,0.));
#471=CARTESIAN_POINT('',(-4.5,17.,0.));
#472=CARTESIAN_POINT('Origin',(-4.5,23.,0.));
#473=CARTESIAN_POINT('',(-4.5,11.5,0.));
#474=CARTESIAN_POINT('Origin',(8.13091430672776E-15,-20.,0.));
#475=CARTESIAN_POINT('',(4.50000000000001,-20.,0.));
#476=CARTESIAN_POINT('Origin',(8.13091430672776E-15,-20.,0.));
#477=CARTESIAN_POINT('Origin',(-17.5,37.5,0.));
#478=CARTESIAN_POINT('',(-17.5,-37.5,0.));
#479=CARTESIAN_POINT('Origin',(17.5,-37.5,0.));
#480=CARTESIAN_POINT('',(17.5,37.5,0.));
#481=CARTESIAN_POINT('Origin',(0.,0.,0.));
#482=UNCERTAINTY_MEASURE_WITH_UNIT(LENGTH_MEASURE(0.01),#486,
'DISTANCE_ACCURACY_VALUE',
'Maximum model space distance between geometric entities at asserted c
onnectivities');
#483=UNCERTAINTY_MEASURE_WITH_UNIT(LENGTH_MEASURE(1.E-6),#486,
'DISTANCE_ACCURACY_VALUE',
'Maximum model space distance between geometric entities at asserted c
onnectivities');
#484=(
GEOMETRIC_REPRESENTATION_CONTEXT(3)
GLOBAL_UNCERTAINTY_ASSIGNED_CONTEXT((#482))
GLOBAL_UNIT_ASSIGNED_CONTEXT((#486,#489,#487))
REPRESENTATION_CONTEXT('','3D')
);
#485=(
GEOMETRIC_REPRESENTATION_CONTEXT(3)
GLOBAL_UNCERTAINTY_ASSIGNED_CONTEXT((#483))
GLOBAL_UNIT_ASSIGNED_CONTEXT((#486,#489,#487))
REPRESENTATION_CONTEXT('','3D')
);
#486=(
LENGTH_UNIT()
NAMED_UNIT(*)
SI_UNIT(.MILLI.,.METRE.)
);
#487=(
NAMED_UNIT(*)
SI_UNIT($,.STERADIAN.)
SOLID_ANGLE_UNIT()
);
#488=DIMENSIONAL_EXPONENTS(0.,0.,0.,0.,0.,0.,0.);
#489=(
CONVERSION_BASED_UNIT('degree',#491)
NAMED_UNIT(#488)
PLANE_ANGLE_UNIT()
);
#490=(
NAMED_UNIT(*)
PLANE_ANGLE_UNIT()
SI_UNIT($,.RADIAN.)
);
#491=PLANE_ANGLE_MEASURE_WITH_UNIT(PLANE_ANGLE_MEASURE(0.01745329252),#490);
#492=SHAPE_DEFINITION_REPRESENTATION(#493,#494);
#493=PRODUCT_DEFINITION_SHAPE('',$,#496);
#494=SHAPE_REPRESENTATION('',(#288),#484);
#495=PRODUCT_DEFINITION_CONTEXT('part definition',#500,'design');
#496=PRODUCT_DEFINITION('DSP3575-8','DSP3575-8',#497,#495);
#497=PRODUCT_DEFINITION_FORMATION('',$,#502);
#498=PRODUCT_RELATED_PRODUCT_CATEGORY('DSP3575-8','DSP3575-8',(#502));
#499=APPLICATION_PROTOCOL_DEFINITION('international standard',
'automotive_design',2009,#500);
#500=APPLICATION_CONTEXT(
'Core Data for Automotive Mechanical Design Process');
#501=PRODUCT_CONTEXT('part definition',#500,'mechanical');
#502=PRODUCT('DSP3575-8','DSP3575-8',$,(#501));
#503=PRESENTATION_STYLE_ASSIGNMENT((#504));
#504=SURFACE_STYLE_USAGE(.BOTH.,#505);
#505=SURFACE_SIDE_STYLE($,(#506));
#506=SURFACE_STYLE_FILL_AREA(#507);
#507=FILL_AREA_STYLE($,(#508));
#508=FILL_AREA_STYLE_COLOUR($,#509);
#509=COLOUR_RGB('',0.749019607843137,0.749019607843137,0.749019607843137);
ENDSEC;
END-ISO-10303-21;
