ISO-10303-21;
HEADER;
/* Generated by software containing ST-Developer
 * from STEP Tools, Inc. (www.steptools.com) 
 */

FILE_DESCRIPTION(
/* description */ (''),
/* implementation_level */ '2;1');

FILE_NAME(
/* name */ 'D:\\\X2\96F64EF6\X0\\\M8\X2\7CFB5217\X0\\\\X2\914D4EF6\X0\\\
DSL\\DSL4035-8.stp',
/* time_stamp */ '2025-02-18T13:52:48+08:00',
/* author */ ('1091212-1'),
/* organization */ (''),
/* preprocessor_version */ 'ST-DEVELOPER v15.6',
/* originating_system */ 'Autodesk Inventor 2015',
/* authorisation */ '');

FILE_SCHEMA (('AUTOMOTIVE_DESIGN { 1 0 10303 214 3 1 1 }'));
ENDSEC;

DATA;
#10=MECHANICAL_DESIGN_GEOMETRIC_PRESENTATION_REPRESENTATION('',(#13),#481);
#11=SHAPE_REPRESENTATION_RELATIONSHIP('SRR','None',#490,#12);
#12=ADVANCED_BREP_SHAPE_REPRESENTATION($,(#14),#480);
#13=STYLED_ITEM('',(#499),#14);
#14=MANIFOLD_SOLID_BREP('\X2\5BE69AD4\X0\1',#291);
#15=PLANE('',#299);
#16=PLANE('',#303);
#17=PLANE('',#307);
#18=PLANE('',#311);
#19=PLANE('',#312);
#20=PLANE('',#313);
#21=PLANE('',#314);
#22=PLANE('',#315);
#23=PLANE('',#316);
#24=PLANE('',#317);
#25=LINE('',#409,#53);
#26=LINE('',#412,#54);
#27=LINE('',#415,#55);
#28=LINE('',#417,#56);
#29=LINE('',#418,#57);
#30=LINE('',#424,#58);
#31=LINE('',#426,#59);
#32=LINE('',#427,#60);
#33=LINE('',#433,#61);
#34=LINE('',#436,#62);
#35=LINE('',#439,#63);
#36=LINE('',#441,#64);
#37=LINE('',#442,#65);
#38=LINE('',#448,#66);
#39=LINE('',#451,#67);
#40=LINE('',#454,#68);
#41=LINE('',#456,#69);
#42=LINE('',#457,#70);
#43=LINE('',#460,#71);
#44=LINE('',#462,#72);
#45=LINE('',#463,#73);
#46=LINE('',#464,#74);
#47=LINE('',#467,#75);
#48=LINE('',#469,#76);
#49=LINE('',#470,#77);
#50=LINE('',#472,#78);
#51=LINE('',#474,#79);
#52=LINE('',#476,#80);
#53=VECTOR('',#330,4.5);
#54=VECTOR('',#333,4.5);
#55=VECTOR('',#336,6.);
#56=VECTOR('',#337,6.);
#57=VECTOR('',#338,4.5);
#58=VECTOR('',#345,4.5);
#59=VECTOR('',#348,6.);
#60=VECTOR('',#349,6.);
#61=VECTOR('',#354,35.);
#62=VECTOR('',#357,35.);
#63=VECTOR('',#360,30.5);
#64=VECTOR('',#361,35.);
#65=VECTOR('',#362,30.5);
#66=VECTOR('',#367,35.);
#67=VECTOR('',#370,35.);
#68=VECTOR('',#373,35.);
#69=VECTOR('',#374,35.);
#70=VECTOR('',#375,35.);
#71=VECTOR('',#378,35.);
#72=VECTOR('',#379,4.5);
#73=VECTOR('',#380,30.5);
#74=VECTOR('',#381,4.5);
#75=VECTOR('',#384,35.);
#76=VECTOR('',#385,4.5);
#77=VECTOR('',#386,35.);
#78=VECTOR('',#389,30.5);
#79=VECTOR('',#392,4.5);
#80=VECTOR('',#395,35.);
#81=FACE_BOUND('',#102,.T.);
#82=FACE_BOUND('',#109,.T.);
#83=FACE_BOUND('',#112,.T.);
#84=FACE_BOUND('',#116,.T.);
#85=FACE_BOUND('',#119,.T.);
#86=FACE_OUTER_BOUND('',#101,.T.);
#87=FACE_OUTER_BOUND('',#103,.T.);
#88=FACE_OUTER_BOUND('',#104,.T.);
#89=FACE_OUTER_BOUND('',#105,.T.);
#90=FACE_OUTER_BOUND('',#106,.T.);
#91=FACE_OUTER_BOUND('',#107,.T.);
#92=FACE_OUTER_BOUND('',#108,.T.);
#93=FACE_OUTER_BOUND('',#110,.T.);
#94=FACE_OUTER_BOUND('',#111,.T.);
#95=FACE_OUTER_BOUND('',#113,.T.);
#96=FACE_OUTER_BOUND('',#114,.T.);
#97=FACE_OUTER_BOUND('',#115,.T.);
#98=FACE_OUTER_BOUND('',#117,.T.);
#99=FACE_OUTER_BOUND('',#118,.T.);
#100=FACE_OUTER_BOUND('',#120,.T.);
#101=EDGE_LOOP('',(#195));
#102=EDGE_LOOP('',(#196));
#103=EDGE_LOOP('',(#197,#198,#199,#200));
#104=EDGE_LOOP('',(#201,#202,#203,#204));
#105=EDGE_LOOP('',(#205,#206,#207,#208));
#106=EDGE_LOOP('',(#209,#210,#211,#212));
#107=EDGE_LOOP('',(#213,#214,#215,#216));
#108=EDGE_LOOP('',(#217,#218,#219,#220));
#109=EDGE_LOOP('',(#221,#222,#223,#224));
#110=EDGE_LOOP('',(#225,#226,#227,#228));
#111=EDGE_LOOP('',(#229,#230,#231,#232));
#112=EDGE_LOOP('',(#233,#234,#235,#236));
#113=EDGE_LOOP('',(#237,#238,#239,#240,#241,#242,#243,#244));
#114=EDGE_LOOP('',(#245,#246,#247,#248));
#115=EDGE_LOOP('',(#249,#250,#251,#252));
#116=EDGE_LOOP('',(#253));
#117=EDGE_LOOP('',(#254,#255,#256,#257));
#118=EDGE_LOOP('',(#258,#259,#260,#261));
#119=EDGE_LOOP('',(#262));
#120=EDGE_LOOP('',(#263,#264,#265,#266,#267,#268,#269,#270));
#121=CIRCLE('',#294,4.5);
#122=CIRCLE('',#295,4.5);
#123=CIRCLE('',#297,4.50000000000001);
#124=CIRCLE('',#298,4.50000000000001);
#125=CIRCLE('',#301,4.5);
#126=CIRCLE('',#302,4.5);
#127=CIRCLE('',#305,5.);
#128=CIRCLE('',#306,5.);
#129=CIRCLE('',#309,5.);
#130=CIRCLE('',#310,5.);
#131=VERTEX_POINT('',#400);
#132=VERTEX_POINT('',#402);
#133=VERTEX_POINT('',#405);
#134=VERTEX_POINT('',#406);
#135=VERTEX_POINT('',#408);
#136=VERTEX_POINT('',#410);
#137=VERTEX_POINT('',#414);
#138=VERTEX_POINT('',#416);
#139=VERTEX_POINT('',#420);
#140=VERTEX_POINT('',#422);
#141=VERTEX_POINT('',#429);
#142=VERTEX_POINT('',#430);
#143=VERTEX_POINT('',#432);
#144=VERTEX_POINT('',#434);
#145=VERTEX_POINT('',#438);
#146=VERTEX_POINT('',#440);
#147=VERTEX_POINT('',#444);
#148=VERTEX_POINT('',#445);
#149=VERTEX_POINT('',#447);
#150=VERTEX_POINT('',#449);
#151=VERTEX_POINT('',#453);
#152=VERTEX_POINT('',#455);
#153=VERTEX_POINT('',#459);
#154=VERTEX_POINT('',#461);
#155=VERTEX_POINT('',#466);
#156=VERTEX_POINT('',#468);
#157=EDGE_CURVE('',#131,#131,#121,.T.);
#158=EDGE_CURVE('',#132,#132,#122,.T.);
#159=EDGE_CURVE('',#133,#134,#123,.T.);
#160=EDGE_CURVE('',#135,#133,#25,.T.);
#161=EDGE_CURVE('',#136,#135,#124,.T.);
#162=EDGE_CURVE('',#136,#134,#26,.T.);
#163=EDGE_CURVE('',#134,#137,#27,.T.);
#164=EDGE_CURVE('',#138,#136,#28,.T.);
#165=EDGE_CURVE('',#138,#137,#29,.T.);
#166=EDGE_CURVE('',#137,#139,#125,.T.);
#167=EDGE_CURVE('',#140,#138,#126,.T.);
#168=EDGE_CURVE('',#140,#139,#30,.T.);
#169=EDGE_CURVE('',#139,#133,#31,.T.);
#170=EDGE_CURVE('',#135,#140,#32,.T.);
#171=EDGE_CURVE('',#141,#142,#127,.T.);
#172=EDGE_CURVE('',#142,#143,#33,.T.);
#173=EDGE_CURVE('',#143,#144,#128,.T.);
#174=EDGE_CURVE('',#144,#141,#34,.T.);
#175=EDGE_CURVE('',#145,#142,#35,.T.);
#176=EDGE_CURVE('',#145,#146,#36,.T.);
#177=EDGE_CURVE('',#143,#146,#37,.T.);
#178=EDGE_CURVE('',#147,#148,#129,.T.);
#179=EDGE_CURVE('',#148,#149,#38,.T.);
#180=EDGE_CURVE('',#149,#150,#130,.T.);
#181=EDGE_CURVE('',#150,#147,#39,.T.);
#182=EDGE_CURVE('',#151,#150,#40,.T.);
#183=EDGE_CURVE('',#152,#151,#41,.T.);
#184=EDGE_CURVE('',#147,#152,#42,.T.);
#185=EDGE_CURVE('',#149,#153,#43,.T.);
#186=EDGE_CURVE('',#153,#154,#44,.T.);
#187=EDGE_CURVE('',#154,#144,#45,.T.);
#188=EDGE_CURVE('',#146,#151,#46,.T.);
#189=EDGE_CURVE('',#155,#153,#47,.T.);
#190=EDGE_CURVE('',#156,#155,#48,.T.);
#191=EDGE_CURVE('',#156,#154,#49,.T.);
#192=EDGE_CURVE('',#141,#156,#50,.T.);
#193=EDGE_CURVE('',#152,#145,#51,.T.);
#194=EDGE_CURVE('',#155,#148,#52,.T.);
#195=ORIENTED_EDGE('',*,*,#157,.F.);
#196=ORIENTED_EDGE('',*,*,#158,.F.);
#197=ORIENTED_EDGE('',*,*,#159,.F.);
#198=ORIENTED_EDGE('',*,*,#160,.F.);
#199=ORIENTED_EDGE('',*,*,#161,.F.);
#200=ORIENTED_EDGE('',*,*,#162,.T.);
#201=ORIENTED_EDGE('',*,*,#163,.F.);
#202=ORIENTED_EDGE('',*,*,#162,.F.);
#203=ORIENTED_EDGE('',*,*,#164,.F.);
#204=ORIENTED_EDGE('',*,*,#165,.T.);
#205=ORIENTED_EDGE('',*,*,#166,.F.);
#206=ORIENTED_EDGE('',*,*,#165,.F.);
#207=ORIENTED_EDGE('',*,*,#167,.F.);
#208=ORIENTED_EDGE('',*,*,#168,.T.);
#209=ORIENTED_EDGE('',*,*,#169,.F.);
#210=ORIENTED_EDGE('',*,*,#168,.F.);
#211=ORIENTED_EDGE('',*,*,#170,.F.);
#212=ORIENTED_EDGE('',*,*,#160,.T.);
#213=ORIENTED_EDGE('',*,*,#171,.T.);
#214=ORIENTED_EDGE('',*,*,#172,.T.);
#215=ORIENTED_EDGE('',*,*,#173,.T.);
#216=ORIENTED_EDGE('',*,*,#174,.T.);
#217=ORIENTED_EDGE('',*,*,#172,.F.);
#218=ORIENTED_EDGE('',*,*,#175,.F.);
#219=ORIENTED_EDGE('',*,*,#176,.T.);
#220=ORIENTED_EDGE('',*,*,#177,.F.);
#221=ORIENTED_EDGE('',*,*,#167,.T.);
#222=ORIENTED_EDGE('',*,*,#164,.T.);
#223=ORIENTED_EDGE('',*,*,#161,.T.);
#224=ORIENTED_EDGE('',*,*,#170,.T.);
#225=ORIENTED_EDGE('',*,*,#178,.T.);
#226=ORIENTED_EDGE('',*,*,#179,.T.);
#227=ORIENTED_EDGE('',*,*,#180,.T.);
#228=ORIENTED_EDGE('',*,*,#181,.T.);
#229=ORIENTED_EDGE('',*,*,#181,.F.);
#230=ORIENTED_EDGE('',*,*,#182,.F.);
#231=ORIENTED_EDGE('',*,*,#183,.F.);
#232=ORIENTED_EDGE('',*,*,#184,.F.);
#233=ORIENTED_EDGE('',*,*,#166,.T.);
#234=ORIENTED_EDGE('',*,*,#169,.T.);
#235=ORIENTED_EDGE('',*,*,#159,.T.);
#236=ORIENTED_EDGE('',*,*,#163,.T.);
#237=ORIENTED_EDGE('',*,*,#180,.F.);
#238=ORIENTED_EDGE('',*,*,#185,.T.);
#239=ORIENTED_EDGE('',*,*,#186,.T.);
#240=ORIENTED_EDGE('',*,*,#187,.T.);
#241=ORIENTED_EDGE('',*,*,#173,.F.);
#242=ORIENTED_EDGE('',*,*,#177,.T.);
#243=ORIENTED_EDGE('',*,*,#188,.T.);
#244=ORIENTED_EDGE('',*,*,#182,.T.);
#245=ORIENTED_EDGE('',*,*,#189,.F.);
#246=ORIENTED_EDGE('',*,*,#190,.F.);
#247=ORIENTED_EDGE('',*,*,#191,.T.);
#248=ORIENTED_EDGE('',*,*,#186,.F.);
#249=ORIENTED_EDGE('',*,*,#174,.F.);
#250=ORIENTED_EDGE('',*,*,#187,.F.);
#251=ORIENTED_EDGE('',*,*,#191,.F.);
#252=ORIENTED_EDGE('',*,*,#192,.F.);
#253=ORIENTED_EDGE('',*,*,#158,.T.);
#254=ORIENTED_EDGE('',*,*,#176,.F.);
#255=ORIENTED_EDGE('',*,*,#193,.F.);
#256=ORIENTED_EDGE('',*,*,#183,.T.);
#257=ORIENTED_EDGE('',*,*,#188,.F.);
#258=ORIENTED_EDGE('',*,*,#179,.F.);
#259=ORIENTED_EDGE('',*,*,#194,.F.);
#260=ORIENTED_EDGE('',*,*,#189,.T.);
#261=ORIENTED_EDGE('',*,*,#185,.F.);
#262=ORIENTED_EDGE('',*,*,#157,.T.);
#263=ORIENTED_EDGE('',*,*,#178,.F.);
#264=ORIENTED_EDGE('',*,*,#184,.T.);
#265=ORIENTED_EDGE('',*,*,#193,.T.);
#266=ORIENTED_EDGE('',*,*,#175,.T.);
#267=ORIENTED_EDGE('',*,*,#171,.F.);
#268=ORIENTED_EDGE('',*,*,#192,.T.);
#269=ORIENTED_EDGE('',*,*,#190,.T.);
#270=ORIENTED_EDGE('',*,*,#194,.T.);
#271=CYLINDRICAL_SURFACE('',#293,4.5);
#272=CYLINDRICAL_SURFACE('',#296,4.50000000000001);
#273=CYLINDRICAL_SURFACE('',#300,4.5);
#274=CYLINDRICAL_SURFACE('',#304,5.);
#275=CYLINDRICAL_SURFACE('',#308,5.);
#276=ADVANCED_FACE('',(#86,#81),#271,.F.);
#277=ADVANCED_FACE('',(#87),#272,.F.);
#278=ADVANCED_FACE('',(#88),#15,.F.);
#279=ADVANCED_FACE('',(#89),#273,.F.);
#280=ADVANCED_FACE('',(#90),#16,.F.);
#281=ADVANCED_FACE('',(#91),#274,.F.);
#282=ADVANCED_FACE('',(#92,#82),#17,.T.);
#283=ADVANCED_FACE('',(#93),#275,.T.);
#284=ADVANCED_FACE('',(#94,#83),#18,.T.);
#285=ADVANCED_FACE('',(#95),#19,.T.);
#286=ADVANCED_FACE('',(#96),#20,.T.);
#287=ADVANCED_FACE('',(#97,#84),#21,.T.);
#288=ADVANCED_FACE('',(#98),#22,.T.);
#289=ADVANCED_FACE('',(#99,#85),#23,.T.);
#290=ADVANCED_FACE('',(#100),#24,.T.);
#291=CLOSED_SHELL('',(#276,#277,#278,#279,#280,#281,#282,#283,#284,#285,
#286,#287,#288,#289,#290));
#292=AXIS2_PLACEMENT_3D('placement',#398,#318,#319);
#293=AXIS2_PLACEMENT_3D('',#399,#320,#321);
#294=AXIS2_PLACEMENT_3D('',#401,#322,#323);
#295=AXIS2_PLACEMENT_3D('',#403,#324,#325);
#296=AXIS2_PLACEMENT_3D('',#404,#326,#327);
#297=AXIS2_PLACEMENT_3D('',#407,#328,#329);
#298=AXIS2_PLACEMENT_3D('',#411,#331,#332);
#299=AXIS2_PLACEMENT_3D('',#413,#334,#335);
#300=AXIS2_PLACEMENT_3D('',#419,#339,#340);
#301=AXIS2_PLACEMENT_3D('',#421,#341,#342);
#302=AXIS2_PLACEMENT_3D('',#423,#343,#344);
#303=AXIS2_PLACEMENT_3D('',#425,#346,#347);
#304=AXIS2_PLACEMENT_3D('',#428,#350,#351);
#305=AXIS2_PLACEMENT_3D('',#431,#352,#353);
#306=AXIS2_PLACEMENT_3D('',#435,#355,#356);
#307=AXIS2_PLACEMENT_3D('',#437,#358,#359);
#308=AXIS2_PLACEMENT_3D('',#443,#363,#364);
#309=AXIS2_PLACEMENT_3D('',#446,#365,#366);
#310=AXIS2_PLACEMENT_3D('',#450,#368,#369);
#311=AXIS2_PLACEMENT_3D('',#452,#371,#372);
#312=AXIS2_PLACEMENT_3D('',#458,#376,#377);
#313=AXIS2_PLACEMENT_3D('',#465,#382,#383);
#314=AXIS2_PLACEMENT_3D('',#471,#387,#388);
#315=AXIS2_PLACEMENT_3D('',#473,#390,#391);
#316=AXIS2_PLACEMENT_3D('',#475,#393,#394);
#317=AXIS2_PLACEMENT_3D('',#477,#396,#397);
#318=DIRECTION('axis',(0.,0.,1.));
#319=DIRECTION('refdir',(1.,0.,0.));
#320=DIRECTION('center_axis',(-1.,-1.1842378929335E-16,0.));
#321=DIRECTION('ref_axis',(0.,0.,1.));
#322=DIRECTION('center_axis',(1.,1.22464679914735E-16,0.));
#323=DIRECTION('ref_axis',(0.,0.,1.));
#324=DIRECTION('center_axis',(-1.,-1.2509555207044E-16,0.));
#325=DIRECTION('ref_axis',(0.,0.,1.));
#326=DIRECTION('center_axis',(2.96059473233375E-16,-1.,0.));
#327=DIRECTION('ref_axis',(0.,0.,1.));
#328=DIRECTION('center_axis',(-3.06161699786838E-16,1.,0.));
#329=DIRECTION('ref_axis',(0.,0.,1.));
#330=DIRECTION('',(2.96059473233375E-16,-1.,0.));
#331=DIRECTION('center_axis',(3.127388801761E-16,-1.,0.));
#332=DIRECTION('ref_axis',(0.,0.,1.));
#333=DIRECTION('',(2.96059473233375E-16,-1.,0.));
#334=DIRECTION('center_axis',(0.,0.,-1.));
#335=DIRECTION('ref_axis',(1.,3.5527136788005E-16,0.));
#336=DIRECTION('',(-1.,-3.06161699786838E-16,0.));
#337=DIRECTION('',(1.,3.127388801761E-16,0.));
#338=DIRECTION('',(2.96059473233375E-16,-1.,0.));
#339=DIRECTION('center_axis',(2.96059473233375E-16,-1.,0.));
#340=DIRECTION('ref_axis',(0.,0.,-1.));
#341=DIRECTION('center_axis',(-3.06161699786838E-16,1.,0.));
#342=DIRECTION('ref_axis',(0.,0.,-1.));
#343=DIRECTION('center_axis',(3.127388801761E-16,-1.,0.));
#344=DIRECTION('ref_axis',(0.,0.,-1.));
#345=DIRECTION('',(2.96059473233375E-16,-1.,0.));
#346=DIRECTION('center_axis',(0.,0.,1.));
#347=DIRECTION('ref_axis',(-1.,-3.5527136788005E-16,0.));
#348=DIRECTION('',(1.,3.06161699786838E-16,0.));
#349=DIRECTION('',(-1.,-3.127388801761E-16,0.));
#350=DIRECTION('center_axis',(0.,0.,-1.));
#351=DIRECTION('ref_axis',(-0.707106781186548,-0.707106781186548,0.));
#352=DIRECTION('center_axis',(0.,0.,1.));
#353=DIRECTION('ref_axis',(-0.707106781186548,-0.707106781186548,0.));
#354=DIRECTION('',(0.,0.,-1.));
#355=DIRECTION('center_axis',(0.,0.,-1.));
#356=DIRECTION('ref_axis',(-0.707106781186548,-0.707106781186548,0.));
#357=DIRECTION('',(0.,0.,1.));
#358=DIRECTION('center_axis',(-3.127388801761E-16,1.,0.));
#359=DIRECTION('ref_axis',(-1.,-3.5527136788005E-16,0.));
#360=DIRECTION('',(-1.,-3.127388801761E-16,0.));
#361=DIRECTION('',(0.,0.,-1.));
#362=DIRECTION('',(1.,3.127388801761E-16,0.));
#363=DIRECTION('center_axis',(0.,0.,1.));
#364=DIRECTION('ref_axis',(-0.707106781186547,-0.707106781186548,0.));
#365=DIRECTION('center_axis',(0.,0.,-1.));
#366=DIRECTION('ref_axis',(-0.707106781186547,-0.707106781186548,0.));
#367=DIRECTION('',(0.,0.,-1.));
#368=DIRECTION('center_axis',(0.,0.,1.));
#369=DIRECTION('ref_axis',(-0.707106781186547,-0.707106781186548,0.));
#370=DIRECTION('',(0.,0.,1.));
#371=DIRECTION('center_axis',(3.06161699786838E-16,-1.,0.));
#372=DIRECTION('ref_axis',(1.,3.06161699786838E-16,0.));
#373=DIRECTION('',(-1.,-3.06161699786838E-16,0.));
#374=DIRECTION('',(0.,0.,-1.));
#375=DIRECTION('',(1.,3.06161699786838E-16,0.));
#376=DIRECTION('center_axis',(0.,0.,-1.));
#377=DIRECTION('ref_axis',(-1.,0.,0.));
#378=DIRECTION('',(-1.22464679914735E-16,1.,0.));
#379=DIRECTION('',(1.,0.,0.));
#380=DIRECTION('',(1.2509555207044E-16,-1.,0.));
#381=DIRECTION('',(0.,-1.,0.));
#382=DIRECTION('center_axis',(0.,1.,0.));
#383=DIRECTION('ref_axis',(-1.,0.,0.));
#384=DIRECTION('',(0.,0.,-1.));
#385=DIRECTION('',(-1.,0.,0.));
#386=DIRECTION('',(0.,0.,-1.));
#387=DIRECTION('center_axis',(1.,1.2509555207044E-16,0.));
#388=DIRECTION('ref_axis',(-8.88178419700125E-17,1.,0.));
#389=DIRECTION('',(-1.2509555207044E-16,1.,0.));
#390=DIRECTION('center_axis',(1.,0.,0.));
#391=DIRECTION('ref_axis',(0.,1.,0.));
#392=DIRECTION('',(0.,1.,0.));
#393=DIRECTION('center_axis',(-1.,-1.22464679914735E-16,0.));
#394=DIRECTION('ref_axis',(1.22464679914735E-16,-1.,0.));
#395=DIRECTION('',(1.22464679914735E-16,-1.,0.));
#396=DIRECTION('center_axis',(0.,0.,1.));
#397=DIRECTION('ref_axis',(1.,0.,0.));
#398=CARTESIAN_POINT('',(0.,0.,0.));
#399=CARTESIAN_POINT('Origin',(4.5,25.,0.));
#400=CARTESIAN_POINT('',(-3.33066907387547E-15,25.,-4.5));
#401=CARTESIAN_POINT('Origin',(-3.33066907387547E-15,25.,0.));
#402=CARTESIAN_POINT('',(4.5,25.,-4.5));
#403=CARTESIAN_POINT('Origin',(4.5,25.,0.));
#404=CARTESIAN_POINT('Origin',(25.0000000000509,4.50000000000001,0.));
#405=CARTESIAN_POINT('',(25.0000000000509,7.7715611723761E-15,4.5));
#406=CARTESIAN_POINT('',(25.0000000000509,7.7715611723761E-15,-4.5));
#407=CARTESIAN_POINT('Origin',(25.0000000000509,7.21644966006352E-15,0.));
#408=CARTESIAN_POINT('',(25.0000000000509,4.50000000000001,4.5));
#409=CARTESIAN_POINT('',(25.0000000000509,4.50000000000001,4.5));
#410=CARTESIAN_POINT('',(25.0000000000509,4.50000000000001,-4.5));
#411=CARTESIAN_POINT('Origin',(25.0000000000509,4.50000000000001,0.));
#412=CARTESIAN_POINT('',(25.0000000000509,4.50000000000001,-4.5));
#413=CARTESIAN_POINT('Origin',(19.0000000000509,4.50000000000001,-4.5));
#414=CARTESIAN_POINT('',(19.000000000051,5.55111512312578E-15,-4.5));
#415=CARTESIAN_POINT('',(9.50000000002548,2.77555756156289E-15,-4.5));
#416=CARTESIAN_POINT('',(19.0000000000509,4.50000000000001,-4.5));
#417=CARTESIAN_POINT('',(29.5000000000255,4.50000000000001,-4.5));
#418=CARTESIAN_POINT('',(19.0000000000509,4.50000000000001,-4.5));
#419=CARTESIAN_POINT('Origin',(19.0000000000509,4.50000000000001,0.));
#420=CARTESIAN_POINT('',(19.000000000051,5.55111512312578E-15,4.5));
#421=CARTESIAN_POINT('Origin',(19.000000000051,5.55111512312578E-15,0.));
#422=CARTESIAN_POINT('',(19.0000000000509,4.50000000000001,4.5));
#423=CARTESIAN_POINT('Origin',(19.0000000000509,4.50000000000001,0.));
#424=CARTESIAN_POINT('',(19.0000000000509,4.50000000000001,4.5));
#425=CARTESIAN_POINT('Origin',(25.0000000000509,4.50000000000001,4.5));
#426=CARTESIAN_POINT('',(12.5000000000255,3.88578058618805E-15,4.5));
#427=CARTESIAN_POINT('',(32.5000000000255,4.50000000000001,4.5));
#428=CARTESIAN_POINT('Origin',(9.5,9.5,0.));
#429=CARTESIAN_POINT('',(4.5,9.5,17.5));
#430=CARTESIAN_POINT('',(9.5,4.5,17.5));
#431=CARTESIAN_POINT('Origin',(9.5,9.5,17.5));
#432=CARTESIAN_POINT('',(9.5,4.5,-17.5));
#433=CARTESIAN_POINT('',(9.5,4.5,0.));
#434=CARTESIAN_POINT('',(4.5,9.5,-17.5));
#435=CARTESIAN_POINT('Origin',(9.5,9.5,-17.5));
#436=CARTESIAN_POINT('',(4.5,9.5,0.));
#437=CARTESIAN_POINT('Origin',(40.,4.50000000000001,0.));
#438=CARTESIAN_POINT('',(40.,4.50000000000001,17.5));
#439=CARTESIAN_POINT('',(4.5,4.5,17.5));
#440=CARTESIAN_POINT('',(40.,4.50000000000001,-17.5));
#441=CARTESIAN_POINT('',(40.,4.50000000000001,0.));
#442=CARTESIAN_POINT('',(4.5,4.5,-17.5));
#443=CARTESIAN_POINT('Origin',(5.,5.,0.));
#444=CARTESIAN_POINT('',(5.,1.53080849893419E-15,17.5));
#445=CARTESIAN_POINT('',(-6.12323399573677E-16,5.,17.5));
#446=CARTESIAN_POINT('Origin',(5.,5.,17.5));
#447=CARTESIAN_POINT('',(-6.12323399573677E-16,5.,-17.5));
#448=CARTESIAN_POINT('',(-5.55111512312578E-16,5.,0.));
#449=CARTESIAN_POINT('',(5.,1.53080849893419E-15,-17.5));
#450=CARTESIAN_POINT('Origin',(5.,5.,-17.5));
#451=CARTESIAN_POINT('',(5.,1.11022302462516E-15,0.));
#452=CARTESIAN_POINT('Origin',(0.,0.,0.));
#453=CARTESIAN_POINT('',(40.,1.22464679914735E-14,-17.5));
#454=CARTESIAN_POINT('',(40.,1.22464679914735E-14,-17.5));
#455=CARTESIAN_POINT('',(40.,1.22464679914735E-14,17.5));
#456=CARTESIAN_POINT('',(40.,1.22464679914735E-14,0.));
#457=CARTESIAN_POINT('',(40.,1.22464679914735E-14,17.5));
#458=CARTESIAN_POINT('Origin',(12.1234375,12.1234375,-17.5));
#459=CARTESIAN_POINT('',(-4.89858719658941E-15,40.,-17.5));
#460=CARTESIAN_POINT('',(0.,0.,-17.5));
#461=CARTESIAN_POINT('',(4.49999999999999,40.,-17.5));
#462=CARTESIAN_POINT('',(-4.89858719658941E-15,40.,-17.5));
#463=CARTESIAN_POINT('',(4.49999999999999,40.,-17.5));
#464=CARTESIAN_POINT('',(40.,4.50000000000001,-17.5));
#465=CARTESIAN_POINT('Origin',(4.49999999999999,40.,0.));
#466=CARTESIAN_POINT('',(-4.89858719658941E-15,40.,17.5));
#467=CARTESIAN_POINT('',(-4.89858719658941E-15,40.,0.));
#468=CARTESIAN_POINT('',(4.49999999999999,40.,17.5));
#469=CARTESIAN_POINT('',(-4.89858719658941E-15,40.,17.5));
#470=CARTESIAN_POINT('',(4.49999999999999,40.,0.));
#471=CARTESIAN_POINT('Origin',(4.5,4.5,0.));
#472=CARTESIAN_POINT('',(4.49999999999999,40.,17.5));
#473=CARTESIAN_POINT('Origin',(40.,1.22124532708767E-14,0.));
#474=CARTESIAN_POINT('',(40.,4.50000000000001,17.5));
#475=CARTESIAN_POINT('Origin',(-4.89858719658941E-15,40.,0.));
#476=CARTESIAN_POINT('',(0.,0.,17.5));
#477=CARTESIAN_POINT('Origin',(12.1234375,12.1234375,17.5));
#478=UNCERTAINTY_MEASURE_WITH_UNIT(LENGTH_MEASURE(0.01),#482,
'DISTANCE_ACCURACY_VALUE',
'Maximum model space distance between geometric entities at asserted c
onnectivities');
#479=UNCERTAINTY_MEASURE_WITH_UNIT(LENGTH_MEASURE(1.E-6),#482,
'DISTANCE_ACCURACY_VALUE',
'Maximum model space distance between geometric entities at asserted c
onnectivities');
#480=(
GEOMETRIC_REPRESENTATION_CONTEXT(3)
GLOBAL_UNCERTAINTY_ASSIGNED_CONTEXT((#478))
GLOBAL_UNIT_ASSIGNED_CONTEXT((#482,#485,#483))
REPRESENTATION_CONTEXT('','3D')
);
#481=(
GEOMETRIC_REPRESENTATION_CONTEXT(3)
GLOBAL_UNCERTAINTY_ASSIGNED_CONTEXT((#479))
GLOBAL_UNIT_ASSIGNED_CONTEXT((#482,#485,#483))
REPRESENTATION_CONTEXT('','3D')
);
#482=(
LENGTH_UNIT()
NAMED_UNIT(*)
SI_UNIT(.MILLI.,.METRE.)
);
#483=(
NAMED_UNIT(*)
SI_UNIT($,.STERADIAN.)
SOLID_ANGLE_UNIT()
);
#484=DIMENSIONAL_EXPONENTS(0.,0.,0.,0.,0.,0.,0.);
#485=(
CONVERSION_BASED_UNIT('degree',#487)
NAMED_UNIT(#484)
PLANE_ANGLE_UNIT()
);
#486=(
NAMED_UNIT(*)
PLANE_ANGLE_UNIT()
SI_UNIT($,.RADIAN.)
);
#487=PLANE_ANGLE_MEASURE_WITH_UNIT(PLANE_ANGLE_MEASURE(0.01745329252),#486);
#488=SHAPE_DEFINITION_REPRESENTATION(#489,#490);
#489=PRODUCT_DEFINITION_SHAPE('',$,#492);
#490=SHAPE_REPRESENTATION('',(#292),#480);
#491=PRODUCT_DEFINITION_CONTEXT('part definition',#496,'design');
#492=PRODUCT_DEFINITION('DSL4035-8','DSL4035-8',#493,#491);
#493=PRODUCT_DEFINITION_FORMATION('',$,#498);
#494=PRODUCT_RELATED_PRODUCT_CATEGORY('DSL4035-8','DSL4035-8',(#498));
#495=APPLICATION_PROTOCOL_DEFINITION('international standard',
'automotive_design',2009,#496);
#496=APPLICATION_CONTEXT(
'Core Data for Automotive Mechanical Design Process');
#497=PRODUCT_CONTEXT('part definition',#496,'mechanical');
#498=PRODUCT('DSL4035-8','DSL4035-8',$,(#497));
#499=PRESENTATION_STYLE_ASSIGNMENT((#500));
#500=SURFACE_STYLE_USAGE(.BOTH.,#501);
#501=SURFACE_SIDE_STYLE($,(#502));
#502=SURFACE_STYLE_FILL_AREA(#503);
#503=FILL_AREA_STYLE($,(#504));
#504=FILL_AREA_STYLE_COLOUR($,#505);
#505=COLOUR_RGB('',0.749019607843137,0.749019607843137,0.749019607843137);
ENDSEC;
END-ISO-10303-21;
