ISO-10303-21;
HEADER;
/* Generated by software containing ST-Developer
 * from STEP Tools, Inc. (www.steptools.com) 
 */

FILE_DESCRIPTION(
/* description */ (''),
/* implementation_level */ '2;1');

FILE_NAME(
/* name */ 'D:\\\X2\96F64EF6\X0\\\M8\X2\7CFB5217\X0\\\\X2\914D4EF6\X0\\\
DAL\\DAL4035-8.stp',
/* time_stamp */ '2025-02-17T11:18:07+08:00',
/* author */ ('1091212-1'),
/* organization */ (''),
/* preprocessor_version */ 'ST-DEVELOPER v15.6',
/* originating_system */ 'Autodesk Inventor 2015',
/* authorisation */ '');

FILE_SCHEMA (('AUTOMOTIVE_DESIGN { 1 0 10303 214 3 1 1 }'));
ENDSEC;

DATA;
#10=MECHANICAL_DESIGN_GEOMETRIC_PRESENTATION_REPRESENTATION('',(#13),#342);
#11=SHAPE_REPRESENTATION_RELATIONSHIP('SRR','None',#351,#12);
#12=ADVANCED_BREP_SHAPE_REPRESENTATION($,(#14),#341);
#13=STYLED_ITEM('',(#360),#14);
#14=MANIFOLD_SOLID_BREP('\X2\5BE69AD4\X0\1',#206);
#15=LINE('',#298,#32);
#16=LINE('',#300,#33);
#17=LINE('',#302,#34);
#18=LINE('',#303,#35);
#19=LINE('',#306,#36);
#20=LINE('',#308,#37);
#21=LINE('',#309,#38);
#22=LINE('',#315,#39);
#23=LINE('',#318,#40);
#24=LINE('',#320,#41);
#25=LINE('',#323,#42);
#26=LINE('',#326,#43);
#27=LINE('',#329,#44);
#28=LINE('',#331,#45);
#29=LINE('',#334,#46);
#30=LINE('',#335,#47);
#31=LINE('',#337,#48);
#32=VECTOR('',#243,4.24264068711928);
#33=VECTOR('',#244,35.);
#34=VECTOR('',#245,4.24264068711928);
#35=VECTOR('',#246,35.);
#36=VECTOR('',#249,27.);
#37=VECTOR('',#250,35.);
#38=VECTOR('',#251,27.);
#39=VECTOR('',#258,35.);
#40=VECTOR('',#261,40.);
#41=VECTOR('',#262,40.);
#42=VECTOR('',#265,27.);
#43=VECTOR('',#268,35.);
#44=VECTOR('',#271,35.);
#45=VECTOR('',#274,27.);
#46=VECTOR('',#277,40.);
#47=VECTOR('',#278,35.);
#48=VECTOR('',#281,40.);
#49=PLANE('',#214);
#50=PLANE('',#215);
#51=PLANE('',#219);
#52=PLANE('',#223);
#53=PLANE('',#224);
#54=PLANE('',#225);
#55=PLANE('',#226);
#56=FACE_BOUND('',#74,.T.);
#57=FACE_BOUND('',#76,.T.);
#58=FACE_BOUND('',#79,.T.);
#59=FACE_BOUND('',#84,.T.);
#60=FACE_BOUND('',#86,.T.);
#61=FACE_BOUND('',#88,.T.);
#62=FACE_OUTER_BOUND('',#73,.T.);
#63=FACE_OUTER_BOUND('',#75,.T.);
#64=FACE_OUTER_BOUND('',#77,.T.);
#65=FACE_OUTER_BOUND('',#78,.T.);
#66=FACE_OUTER_BOUND('',#80,.T.);
#67=FACE_OUTER_BOUND('',#81,.T.);
#68=FACE_OUTER_BOUND('',#82,.T.);
#69=FACE_OUTER_BOUND('',#83,.T.);
#70=FACE_OUTER_BOUND('',#85,.T.);
#71=FACE_OUTER_BOUND('',#87,.T.);
#72=FACE_OUTER_BOUND('',#89,.T.);
#73=EDGE_LOOP('',(#141));
#74=EDGE_LOOP('',(#142));
#75=EDGE_LOOP('',(#143));
#76=EDGE_LOOP('',(#144));
#77=EDGE_LOOP('',(#145,#146,#147,#148));
#78=EDGE_LOOP('',(#149,#150,#151,#152));
#79=EDGE_LOOP('',(#153));
#80=EDGE_LOOP('',(#154,#155,#156,#157));
#81=EDGE_LOOP('',(#158,#159,#160,#161,#162,#163,#164));
#82=EDGE_LOOP('',(#165,#166,#167,#168));
#83=EDGE_LOOP('',(#169,#170,#171,#172));
#84=EDGE_LOOP('',(#173));
#85=EDGE_LOOP('',(#174,#175,#176,#177));
#86=EDGE_LOOP('',(#178));
#87=EDGE_LOOP('',(#179,#180,#181,#182));
#88=EDGE_LOOP('',(#183));
#89=EDGE_LOOP('',(#184,#185,#186,#187,#188,#189,#190));
#90=CIRCLE('',#209,4.5);
#91=CIRCLE('',#210,4.5);
#92=CIRCLE('',#212,4.5);
#93=CIRCLE('',#213,4.5);
#94=CIRCLE('',#217,5.);
#95=CIRCLE('',#218,5.);
#96=CIRCLE('',#220,5.);
#97=CIRCLE('',#222,5.);
#98=VERTEX_POINT('',#286);
#99=VERTEX_POINT('',#288);
#100=VERTEX_POINT('',#291);
#101=VERTEX_POINT('',#293);
#102=VERTEX_POINT('',#296);
#103=VERTEX_POINT('',#297);
#104=VERTEX_POINT('',#299);
#105=VERTEX_POINT('',#301);
#106=VERTEX_POINT('',#305);
#107=VERTEX_POINT('',#307);
#108=VERTEX_POINT('',#311);
#109=VERTEX_POINT('',#313);
#110=VERTEX_POINT('',#317);
#111=VERTEX_POINT('',#319);
#112=VERTEX_POINT('',#321);
#113=VERTEX_POINT('',#325);
#114=VERTEX_POINT('',#327);
#115=VERTEX_POINT('',#333);
#116=EDGE_CURVE('',#98,#98,#90,.T.);
#117=EDGE_CURVE('',#99,#99,#91,.T.);
#118=EDGE_CURVE('',#100,#100,#92,.T.);
#119=EDGE_CURVE('',#101,#101,#93,.T.);
#120=EDGE_CURVE('',#102,#103,#15,.T.);
#121=EDGE_CURVE('',#103,#104,#16,.T.);
#122=EDGE_CURVE('',#104,#105,#17,.T.);
#123=EDGE_CURVE('',#105,#102,#18,.T.);
#124=EDGE_CURVE('',#106,#103,#19,.T.);
#125=EDGE_CURVE('',#107,#106,#20,.T.);
#126=EDGE_CURVE('',#104,#107,#21,.T.);
#127=EDGE_CURVE('',#108,#107,#94,.T.);
#128=EDGE_CURVE('',#106,#109,#95,.T.);
#129=EDGE_CURVE('',#109,#108,#22,.T.);
#130=EDGE_CURVE('',#108,#110,#23,.T.);
#131=EDGE_CURVE('',#110,#111,#24,.T.);
#132=EDGE_CURVE('',#112,#111,#96,.T.);
#133=EDGE_CURVE('',#112,#105,#25,.T.);
#134=EDGE_CURVE('',#113,#111,#26,.T.);
#135=EDGE_CURVE('',#113,#114,#97,.T.);
#136=EDGE_CURVE('',#114,#112,#27,.T.);
#137=EDGE_CURVE('',#102,#114,#28,.T.);
#138=EDGE_CURVE('',#115,#109,#29,.T.);
#139=EDGE_CURVE('',#110,#115,#30,.T.);
#140=EDGE_CURVE('',#113,#115,#31,.T.);
#141=ORIENTED_EDGE('',*,*,#116,.F.);
#142=ORIENTED_EDGE('',*,*,#117,.F.);
#143=ORIENTED_EDGE('',*,*,#118,.F.);
#144=ORIENTED_EDGE('',*,*,#119,.F.);
#145=ORIENTED_EDGE('',*,*,#120,.T.);
#146=ORIENTED_EDGE('',*,*,#121,.T.);
#147=ORIENTED_EDGE('',*,*,#122,.T.);
#148=ORIENTED_EDGE('',*,*,#123,.T.);
#149=ORIENTED_EDGE('',*,*,#121,.F.);
#150=ORIENTED_EDGE('',*,*,#124,.F.);
#151=ORIENTED_EDGE('',*,*,#125,.F.);
#152=ORIENTED_EDGE('',*,*,#126,.F.);
#153=ORIENTED_EDGE('',*,*,#119,.T.);
#154=ORIENTED_EDGE('',*,*,#127,.T.);
#155=ORIENTED_EDGE('',*,*,#125,.T.);
#156=ORIENTED_EDGE('',*,*,#128,.T.);
#157=ORIENTED_EDGE('',*,*,#129,.T.);
#158=ORIENTED_EDGE('',*,*,#127,.F.);
#159=ORIENTED_EDGE('',*,*,#130,.T.);
#160=ORIENTED_EDGE('',*,*,#131,.T.);
#161=ORIENTED_EDGE('',*,*,#132,.F.);
#162=ORIENTED_EDGE('',*,*,#133,.T.);
#163=ORIENTED_EDGE('',*,*,#122,.F.);
#164=ORIENTED_EDGE('',*,*,#126,.T.);
#165=ORIENTED_EDGE('',*,*,#132,.T.);
#166=ORIENTED_EDGE('',*,*,#134,.F.);
#167=ORIENTED_EDGE('',*,*,#135,.T.);
#168=ORIENTED_EDGE('',*,*,#136,.T.);
#169=ORIENTED_EDGE('',*,*,#123,.F.);
#170=ORIENTED_EDGE('',*,*,#133,.F.);
#171=ORIENTED_EDGE('',*,*,#136,.F.);
#172=ORIENTED_EDGE('',*,*,#137,.F.);
#173=ORIENTED_EDGE('',*,*,#117,.T.);
#174=ORIENTED_EDGE('',*,*,#129,.F.);
#175=ORIENTED_EDGE('',*,*,#138,.F.);
#176=ORIENTED_EDGE('',*,*,#139,.F.);
#177=ORIENTED_EDGE('',*,*,#130,.F.);
#178=ORIENTED_EDGE('',*,*,#118,.T.);
#179=ORIENTED_EDGE('',*,*,#139,.T.);
#180=ORIENTED_EDGE('',*,*,#140,.F.);
#181=ORIENTED_EDGE('',*,*,#134,.T.);
#182=ORIENTED_EDGE('',*,*,#131,.F.);
#183=ORIENTED_EDGE('',*,*,#116,.T.);
#184=ORIENTED_EDGE('',*,*,#128,.F.);
#185=ORIENTED_EDGE('',*,*,#124,.T.);
#186=ORIENTED_EDGE('',*,*,#120,.F.);
#187=ORIENTED_EDGE('',*,*,#137,.T.);
#188=ORIENTED_EDGE('',*,*,#135,.F.);
#189=ORIENTED_EDGE('',*,*,#140,.T.);
#190=ORIENTED_EDGE('',*,*,#138,.T.);
#191=CYLINDRICAL_SURFACE('',#208,4.5);
#192=CYLINDRICAL_SURFACE('',#211,4.5);
#193=CYLINDRICAL_SURFACE('',#216,5.);
#194=CYLINDRICAL_SURFACE('',#221,5.);
#195=ADVANCED_FACE('',(#62,#56),#191,.F.);
#196=ADVANCED_FACE('',(#63,#57),#192,.F.);
#197=ADVANCED_FACE('',(#64),#49,.T.);
#198=ADVANCED_FACE('',(#65,#58),#50,.T.);
#199=ADVANCED_FACE('',(#66),#193,.T.);
#200=ADVANCED_FACE('',(#67),#51,.T.);
#201=ADVANCED_FACE('',(#68),#194,.T.);
#202=ADVANCED_FACE('',(#69,#59),#52,.T.);
#203=ADVANCED_FACE('',(#70,#60),#53,.T.);
#204=ADVANCED_FACE('',(#71,#61),#54,.T.);
#205=ADVANCED_FACE('',(#72),#55,.T.);
#206=CLOSED_SHELL('',(#195,#196,#197,#198,#199,#200,#201,#202,#203,#204,
#205));
#207=AXIS2_PLACEMENT_3D('placement',#284,#227,#228);
#208=AXIS2_PLACEMENT_3D('',#285,#229,#230);
#209=AXIS2_PLACEMENT_3D('',#287,#231,#232);
#210=AXIS2_PLACEMENT_3D('',#289,#233,#234);
#211=AXIS2_PLACEMENT_3D('',#290,#235,#236);
#212=AXIS2_PLACEMENT_3D('',#292,#237,#238);
#213=AXIS2_PLACEMENT_3D('',#294,#239,#240);
#214=AXIS2_PLACEMENT_3D('',#295,#241,#242);
#215=AXIS2_PLACEMENT_3D('',#304,#247,#248);
#216=AXIS2_PLACEMENT_3D('',#310,#252,#253);
#217=AXIS2_PLACEMENT_3D('',#312,#254,#255);
#218=AXIS2_PLACEMENT_3D('',#314,#256,#257);
#219=AXIS2_PLACEMENT_3D('',#316,#259,#260);
#220=AXIS2_PLACEMENT_3D('',#322,#263,#264);
#221=AXIS2_PLACEMENT_3D('',#324,#266,#267);
#222=AXIS2_PLACEMENT_3D('',#328,#269,#270);
#223=AXIS2_PLACEMENT_3D('',#330,#272,#273);
#224=AXIS2_PLACEMENT_3D('',#332,#275,#276);
#225=AXIS2_PLACEMENT_3D('',#336,#279,#280);
#226=AXIS2_PLACEMENT_3D('',#338,#282,#283);
#227=DIRECTION('axis',(0.,0.,1.));
#228=DIRECTION('refdir',(1.,0.,0.));
#229=DIRECTION('center_axis',(-1.,0.,0.));
#230=DIRECTION('ref_axis',(0.,0.,1.));
#231=DIRECTION('center_axis',(1.,0.,0.));
#232=DIRECTION('ref_axis',(0.,0.,1.));
#233=DIRECTION('center_axis',(-1.,0.,0.));
#234=DIRECTION('ref_axis',(0.,0.,1.));
#235=DIRECTION('center_axis',(0.,-1.,0.));
#236=DIRECTION('ref_axis',(-1.,0.,0.));
#237=DIRECTION('center_axis',(0.,1.,0.));
#238=DIRECTION('ref_axis',(-1.,0.,0.));
#239=DIRECTION('center_axis',(0.,-1.,0.));
#240=DIRECTION('ref_axis',(-1.,0.,0.));
#241=DIRECTION('center_axis',(0.707106781186548,0.707106781186547,0.));
#242=DIRECTION('ref_axis',(0.,0.,-1.));
#243=DIRECTION('',(0.707106781186547,-0.707106781186548,0.));
#244=DIRECTION('',(0.,0.,-1.));
#245=DIRECTION('',(-0.707106781186547,0.707106781186548,0.));
#246=DIRECTION('',(0.,0.,1.));
#247=DIRECTION('center_axis',(0.,1.,0.));
#248=DIRECTION('ref_axis',(-1.,0.,0.));
#249=DIRECTION('',(-1.,0.,0.));
#250=DIRECTION('',(0.,0.,1.));
#251=DIRECTION('',(1.,0.,0.));
#252=DIRECTION('center_axis',(0.,0.,-1.));
#253=DIRECTION('ref_axis',(0.707106781186547,0.707106781186547,0.));
#254=DIRECTION('center_axis',(0.,0.,1.));
#255=DIRECTION('ref_axis',(0.707106781186547,0.707106781186547,0.));
#256=DIRECTION('center_axis',(0.,0.,-1.));
#257=DIRECTION('ref_axis',(0.707106781186547,0.707106781186547,0.));
#258=DIRECTION('',(0.,0.,-1.));
#259=DIRECTION('center_axis',(0.,0.,-1.));
#260=DIRECTION('ref_axis',(-1.,0.,0.));
#261=DIRECTION('',(-1.,0.,0.));
#262=DIRECTION('',(0.,1.,0.));
#263=DIRECTION('center_axis',(0.,0.,1.));
#264=DIRECTION('ref_axis',(0.707106781186547,0.707106781186547,0.));
#265=DIRECTION('',(0.,-1.,0.));
#266=DIRECTION('center_axis',(0.,0.,-1.));
#267=DIRECTION('ref_axis',(0.707106781186547,0.707106781186547,0.));
#268=DIRECTION('',(0.,0.,-1.));
#269=DIRECTION('center_axis',(0.,0.,-1.));
#270=DIRECTION('ref_axis',(0.707106781186547,0.707106781186547,0.));
#271=DIRECTION('',(0.,0.,-1.));
#272=DIRECTION('center_axis',(1.,0.,0.));
#273=DIRECTION('ref_axis',(0.,1.,0.));
#274=DIRECTION('',(0.,1.,0.));
#275=DIRECTION('center_axis',(0.,-1.,0.));
#276=DIRECTION('ref_axis',(1.,0.,0.));
#277=DIRECTION('',(1.,0.,0.));
#278=DIRECTION('',(0.,0.,1.));
#279=DIRECTION('center_axis',(-1.,0.,0.));
#280=DIRECTION('ref_axis',(0.,-1.,0.));
#281=DIRECTION('',(0.,-1.,0.));
#282=DIRECTION('center_axis',(0.,0.,1.));
#283=DIRECTION('ref_axis',(1.,0.,0.));
#284=CARTESIAN_POINT('',(0.,0.,0.));
#285=CARTESIAN_POINT('Origin',(5.,25.,0.));
#286=CARTESIAN_POINT('',(0.,25.,-4.5));
#287=CARTESIAN_POINT('Origin',(0.,25.,0.));
#288=CARTESIAN_POINT('',(5.,25.,-4.5));
#289=CARTESIAN_POINT('Origin',(5.,25.,0.));
#290=CARTESIAN_POINT('Origin',(20.,5.,0.));
#291=CARTESIAN_POINT('',(24.5,0.,-5.51091059616309E-16));
#292=CARTESIAN_POINT('Origin',(20.,0.,0.));
#293=CARTESIAN_POINT('',(24.5,5.,-5.51091059616309E-16));
#294=CARTESIAN_POINT('Origin',(20.,5.,0.));
#295=CARTESIAN_POINT('Origin',(6.5,6.5,0.));
#296=CARTESIAN_POINT('',(5.,8.,17.5));
#297=CARTESIAN_POINT('',(8.,5.,17.5));
#298=CARTESIAN_POINT('',(6.5,6.5,17.5));
#299=CARTESIAN_POINT('',(8.,5.,-17.5));
#300=CARTESIAN_POINT('',(8.,5.,0.));
#301=CARTESIAN_POINT('',(5.,8.,-17.5));
#302=CARTESIAN_POINT('',(6.5,6.5,-17.5));
#303=CARTESIAN_POINT('',(5.,8.,0.));
#304=CARTESIAN_POINT('Origin',(40.,5.,0.));
#305=CARTESIAN_POINT('',(35.,5.,17.5));
#306=CARTESIAN_POINT('',(5.,5.,17.5));
#307=CARTESIAN_POINT('',(35.,5.,-17.5));
#308=CARTESIAN_POINT('',(35.,5.,0.));
#309=CARTESIAN_POINT('',(5.,5.,-17.5));
#310=CARTESIAN_POINT('Origin',(35.,0.,0.));
#311=CARTESIAN_POINT('',(40.,0.,-17.5));
#312=CARTESIAN_POINT('Origin',(35.,0.,-17.5));
#313=CARTESIAN_POINT('',(40.,0.,17.5));
#314=CARTESIAN_POINT('Origin',(35.,0.,17.5));
#315=CARTESIAN_POINT('',(40.,0.,0.));
#316=CARTESIAN_POINT('Origin',(12.34375,12.34375,-17.5));
#317=CARTESIAN_POINT('',(0.,0.,-17.5));
#318=CARTESIAN_POINT('',(40.,0.,-17.5));
#319=CARTESIAN_POINT('',(0.,40.,-17.5));
#320=CARTESIAN_POINT('',(0.,0.,-17.5));
#321=CARTESIAN_POINT('',(5.,35.,-17.5));
#322=CARTESIAN_POINT('Origin',(0.,35.,-17.5));
#323=CARTESIAN_POINT('',(5.,40.,-17.5));
#324=CARTESIAN_POINT('Origin',(0.,35.,0.));
#325=CARTESIAN_POINT('',(0.,40.,17.5));
#326=CARTESIAN_POINT('',(0.,40.,0.));
#327=CARTESIAN_POINT('',(5.,35.,17.5));
#328=CARTESIAN_POINT('Origin',(0.,35.,17.5));
#329=CARTESIAN_POINT('',(5.,35.,0.));
#330=CARTESIAN_POINT('Origin',(5.,5.,0.));
#331=CARTESIAN_POINT('',(5.,40.,17.5));
#332=CARTESIAN_POINT('Origin',(0.,0.,0.));
#333=CARTESIAN_POINT('',(0.,0.,17.5));
#334=CARTESIAN_POINT('',(40.,0.,17.5));
#335=CARTESIAN_POINT('',(0.,0.,0.));
#336=CARTESIAN_POINT('Origin',(0.,40.,0.));
#337=CARTESIAN_POINT('',(0.,0.,17.5));
#338=CARTESIAN_POINT('Origin',(12.34375,12.34375,17.5));
#339=UNCERTAINTY_MEASURE_WITH_UNIT(LENGTH_MEASURE(0.01),#343,
'DISTANCE_ACCURACY_VALUE',
'Maximum model space distance between geometric entities at asserted c
onnectivities');
#340=UNCERTAINTY_MEASURE_WITH_UNIT(LENGTH_MEASURE(1.E-6),#343,
'DISTANCE_ACCURACY_VALUE',
'Maximum model space distance between geometric entities at asserted c
onnectivities');
#341=(
GEOMETRIC_REPRESENTATION_CONTEXT(3)
GLOBAL_UNCERTAINTY_ASSIGNED_CONTEXT((#339))
GLOBAL_UNIT_ASSIGNED_CONTEXT((#343,#346,#344))
REPRESENTATION_CONTEXT('','3D')
);
#342=(
GEOMETRIC_REPRESENTATION_CONTEXT(3)
GLOBAL_UNCERTAINTY_ASSIGNED_CONTEXT((#340))
GLOBAL_UNIT_ASSIGNED_CONTEXT((#343,#346,#344))
REPRESENTATION_CONTEXT('','3D')
);
#343=(
LENGTH_UNIT()
NAMED_UNIT(*)
SI_UNIT(.MILLI.,.METRE.)
);
#344=(
NAMED_UNIT(*)
SI_UNIT($,.STERADIAN.)
SOLID_ANGLE_UNIT()
);
#345=DIMENSIONAL_EXPONENTS(0.,0.,0.,0.,0.,0.,0.);
#346=(
CONVERSION_BASED_UNIT('degree',#348)
NAMED_UNIT(#345)
PLANE_ANGLE_UNIT()
);
#347=(
NAMED_UNIT(*)
PLANE_ANGLE_UNIT()
SI_UNIT($,.RADIAN.)
);
#348=PLANE_ANGLE_MEASURE_WITH_UNIT(PLANE_ANGLE_MEASURE(0.01745329252),#347);
#349=SHAPE_DEFINITION_REPRESENTATION(#350,#351);
#350=PRODUCT_DEFINITION_SHAPE('',$,#353);
#351=SHAPE_REPRESENTATION('',(#207),#341);
#352=PRODUCT_DEFINITION_CONTEXT('part definition',#357,'design');
#353=PRODUCT_DEFINITION('DAL4035-8','DAL4035-8',#354,#352);
#354=PRODUCT_DEFINITION_FORMATION('',$,#359);
#355=PRODUCT_RELATED_PRODUCT_CATEGORY('DAL4035-8','DAL4035-8',(#359));
#356=APPLICATION_PROTOCOL_DEFINITION('international standard',
'automotive_design',2009,#357);
#357=APPLICATION_CONTEXT(
'Core Data for Automotive Mechanical Design Process');
#358=PRODUCT_CONTEXT('part definition',#357,'mechanical');
#359=PRODUCT('DAL4035-8','DAL4035-8',$,(#358));
#360=PRESENTATION_STYLE_ASSIGNMENT((#361));
#361=SURFACE_STYLE_USAGE(.BOTH.,#362);
#362=SURFACE_SIDE_STYLE($,(#363));
#363=SURFACE_STYLE_FILL_AREA(#364);
#364=FILL_AREA_STYLE($,(#365));
#365=FILL_AREA_STYLE_COLOUR($,#366);
#366=COLOUR_RGB('',0.749019607843137,0.749019607843137,0.749019607843137);
ENDSEC;
END-ISO-10303-21;
