ISO-10303-21;
HEADER;
/* Generated by software containing ST-Developer
 * from STEP Tools, Inc. (www.steptools.com) 
 */

FILE_DESCRIPTION(
/* description */ (''),
/* implementation_level */ '2;1');

FILE_NAME(
/* name */ 'D:\\\X2\96F64EF6\X0\\\M8\X2\7CFB5217\X0\\\\X2\914D4EF6\X0\\\
\X2\6D3B9801\X0\\\AH408P.stp',
/* time_stamp */ '2025-04-01T15:01:22+08:00',
/* author */ ('1091212-1'),
/* organization */ (''),
/* preprocessor_version */ 'ST-DEVELOPER v15.6',
/* originating_system */ 'Autodesk Inventor 2015',
/* authorisation */ '');

FILE_SCHEMA (('AUTOMOTIVE_DESIGN { 1 0 10303 214 3 1 1 }'));
ENDSEC;

DATA;
#10=MECHANICAL_DESIGN_GEOMETRIC_PRESENTATION_REPRESENTATION('',(#24,#23),
#640);
#11=ITEM_DEFINED_TRANSFORMATION($,$,#373,#418);
#12=ITEM_DEFINED_TRANSFORMATION($,$,#395,#419);
#13=(
REPRESENTATION_RELATIONSHIP($,$,#655,#657)
REPRESENTATION_RELATIONSHIP_WITH_TRANSFORMATION(#11)
SHAPE_REPRESENTATION_RELATIONSHIP()
);
#14=(
REPRESENTATION_RELATIONSHIP($,$,#656,#657)
REPRESENTATION_RELATIONSHIP_WITH_TRANSFORMATION(#12)
SHAPE_REPRESENTATION_RELATIONSHIP()
);
#15=CONTEXT_DEPENDENT_SHAPE_REPRESENTATION(#13,#653);
#16=CONTEXT_DEPENDENT_SHAPE_REPRESENTATION(#14,#654);
#17=NEXT_ASSEMBLY_USAGE_OCCURRENCE('AH408P:1',$,$,#661,#659,$);
#18=NEXT_ASSEMBLY_USAGE_OCCURRENCE('AH408P-L:1',$,$,#661,#660,$);
#19=SHAPE_REPRESENTATION_RELATIONSHIP('SRR','None',#655,#21);
#20=SHAPE_REPRESENTATION_RELATIONSHIP('SRR','None',#656,#22);
#21=ADVANCED_BREP_SHAPE_REPRESENTATION($,(#25),#637);
#22=ADVANCED_BREP_SHAPE_REPRESENTATION($,(#26),#638);
#23=STYLED_ITEM('',(#674),#25);
#24=STYLED_ITEM('',(#674),#26);
#25=MANIFOLD_SOLID_BREP('\X2\5BE69AD4\X0\1',#371);
#26=MANIFOLD_SOLID_BREP('\X2\5BE69AD4\X0\1',#372);
#27=CONICAL_SURFACE('',#382,5.,45.);
#28=CONICAL_SURFACE('',#386,5.,45.);
#29=CONICAL_SURFACE('',#401,5.,45.);
#30=CONICAL_SURFACE('',#406,5.,45.);
#31=CYLINDRICAL_SURFACE('',#377,5.5);
#32=CYLINDRICAL_SURFACE('',#385,3.5);
#33=CYLINDRICAL_SURFACE('',#389,3.5);
#34=CYLINDRICAL_SURFACE('',#390,2.5);
#35=CYLINDRICAL_SURFACE('',#399,5.5);
#36=CYLINDRICAL_SURFACE('',#404,3.5);
#37=CYLINDRICAL_SURFACE('',#409,3.5);
#38=CYLINDRICAL_SURFACE('',#412,2.5);
#39=FACE_BOUND('',#84,.T.);
#40=FACE_BOUND('',#87,.T.);
#41=FACE_BOUND('',#88,.T.);
#42=FACE_BOUND('',#90,.T.);
#43=FACE_BOUND('',#92,.T.);
#44=FACE_BOUND('',#94,.T.);
#45=FACE_BOUND('',#96,.T.);
#46=FACE_BOUND('',#98,.T.);
#47=FACE_BOUND('',#100,.T.);
#48=FACE_BOUND('',#102,.T.);
#49=FACE_BOUND('',#103,.T.);
#50=FACE_BOUND('',#106,.T.);
#51=FACE_BOUND('',#109,.T.);
#52=FACE_BOUND('',#111,.T.);
#53=FACE_BOUND('',#113,.T.);
#54=FACE_BOUND('',#115,.T.);
#55=FACE_BOUND('',#117,.T.);
#56=FACE_BOUND('',#118,.T.);
#57=FACE_BOUND('',#120,.T.);
#58=FACE_BOUND('',#122,.T.);
#59=FACE_BOUND('',#124,.T.);
#60=FACE_BOUND('',#125,.T.);
#61=FACE_OUTER_BOUND('',#83,.T.);
#62=FACE_OUTER_BOUND('',#85,.T.);
#63=FACE_OUTER_BOUND('',#86,.T.);
#64=FACE_OUTER_BOUND('',#89,.T.);
#65=FACE_OUTER_BOUND('',#91,.T.);
#66=FACE_OUTER_BOUND('',#93,.T.);
#67=FACE_OUTER_BOUND('',#95,.T.);
#68=FACE_OUTER_BOUND('',#97,.T.);
#69=FACE_OUTER_BOUND('',#99,.T.);
#70=FACE_OUTER_BOUND('',#101,.T.);
#71=FACE_OUTER_BOUND('',#104,.T.);
#72=FACE_OUTER_BOUND('',#105,.T.);
#73=FACE_OUTER_BOUND('',#107,.T.);
#74=FACE_OUTER_BOUND('',#108,.T.);
#75=FACE_OUTER_BOUND('',#110,.T.);
#76=FACE_OUTER_BOUND('',#112,.T.);
#77=FACE_OUTER_BOUND('',#114,.T.);
#78=FACE_OUTER_BOUND('',#116,.T.);
#79=FACE_OUTER_BOUND('',#119,.T.);
#80=FACE_OUTER_BOUND('',#121,.T.);
#81=FACE_OUTER_BOUND('',#123,.T.);
#82=FACE_OUTER_BOUND('',#126,.T.);
#83=EDGE_LOOP('',(#259,#260,#261,#262));
#84=EDGE_LOOP('',(#263));
#85=EDGE_LOOP('',(#264,#265,#266,#267));
#86=EDGE_LOOP('',(#268,#269,#270,#271));
#87=EDGE_LOOP('',(#272));
#88=EDGE_LOOP('',(#273));
#89=EDGE_LOOP('',(#274));
#90=EDGE_LOOP('',(#275));
#91=EDGE_LOOP('',(#276));
#92=EDGE_LOOP('',(#277));
#93=EDGE_LOOP('',(#278));
#94=EDGE_LOOP('',(#279));
#95=EDGE_LOOP('',(#280));
#96=EDGE_LOOP('',(#281));
#97=EDGE_LOOP('',(#282));
#98=EDGE_LOOP('',(#283));
#99=EDGE_LOOP('',(#284,#285,#286,#287));
#100=EDGE_LOOP('',(#288));
#101=EDGE_LOOP('',(#289,#290,#291,#292));
#102=EDGE_LOOP('',(#293));
#103=EDGE_LOOP('',(#294));
#104=EDGE_LOOP('',(#295,#296,#297,#298));
#105=EDGE_LOOP('',(#299,#300,#301,#302));
#106=EDGE_LOOP('',(#303));
#107=EDGE_LOOP('',(#304,#305,#306,#307));
#108=EDGE_LOOP('',(#308));
#109=EDGE_LOOP('',(#309));
#110=EDGE_LOOP('',(#310));
#111=EDGE_LOOP('',(#311));
#112=EDGE_LOOP('',(#312));
#113=EDGE_LOOP('',(#313));
#114=EDGE_LOOP('',(#314));
#115=EDGE_LOOP('',(#315));
#116=EDGE_LOOP('',(#316,#317,#318,#319));
#117=EDGE_LOOP('',(#320));
#118=EDGE_LOOP('',(#321));
#119=EDGE_LOOP('',(#322));
#120=EDGE_LOOP('',(#323));
#121=EDGE_LOOP('',(#324,#325,#326,#327));
#122=EDGE_LOOP('',(#328));
#123=EDGE_LOOP('',(#329,#330,#331,#332));
#124=EDGE_LOOP('',(#333));
#125=EDGE_LOOP('',(#334));
#126=EDGE_LOOP('',(#335,#336,#337,#338));
#127=LINE('',#540,#147);
#128=LINE('',#542,#148);
#129=LINE('',#543,#149);
#130=LINE('',#548,#150);
#131=LINE('',#551,#151);
#132=LINE('',#554,#152);
#133=LINE('',#555,#153);
#134=LINE('',#577,#154);
#135=LINE('',#578,#155);
#136=LINE('',#580,#156);
#137=LINE('',#588,#157);
#138=LINE('',#590,#158);
#139=LINE('',#591,#159);
#140=LINE('',#596,#160);
#141=LINE('',#599,#161);
#142=LINE('',#618,#162);
#143=LINE('',#619,#163);
#144=LINE('',#625,#164);
#145=LINE('',#626,#165);
#146=LINE('',#628,#166);
#147=VECTOR('',#426,39.5);
#148=VECTOR('',#427,4.5);
#149=VECTOR('',#428,34.091673086804);
#150=VECTOR('',#433,49.5);
#151=VECTOR('',#436,49.5);
#152=VECTOR('',#439,39.5);
#153=VECTOR('',#440,49.5);
#154=VECTOR('',#467,34.091673086804);
#155=VECTOR('',#468,4.5);
#156=VECTOR('',#471,49.5);
#157=VECTOR('',#480,39.5);
#158=VECTOR('',#481,4.5);
#159=VECTOR('',#482,34.091673086804);
#160=VECTOR('',#487,49.5);
#161=VECTOR('',#490,49.5);
#162=VECTOR('',#513,39.5);
#163=VECTOR('',#514,49.5);
#164=VECTOR('',#521,34.091673086804);
#165=VECTOR('',#522,4.5);
#166=VECTOR('',#525,49.5);
#167=CIRCLE('',#375,5.5);
#168=CIRCLE('',#376,2.5);
#169=CIRCLE('',#378,5.5);
#170=CIRCLE('',#380,3.5);
#171=CIRCLE('',#381,3.5);
#172=CIRCLE('',#383,6.5);
#173=CIRCLE('',#384,3.5);
#174=CIRCLE('',#387,6.5);
#175=CIRCLE('',#388,3.5);
#176=CIRCLE('',#391,2.5);
#177=CIRCLE('',#397,5.5);
#178=CIRCLE('',#398,2.5);
#179=CIRCLE('',#400,5.5);
#180=CIRCLE('',#402,6.5);
#181=CIRCLE('',#403,3.5);
#182=CIRCLE('',#405,3.5);
#183=CIRCLE('',#407,6.5);
#184=CIRCLE('',#408,3.5);
#185=CIRCLE('',#410,3.5);
#186=CIRCLE('',#413,2.5);
#187=VERTEX_POINT('',#536);
#188=VERTEX_POINT('',#537);
#189=VERTEX_POINT('',#539);
#190=VERTEX_POINT('',#541);
#191=VERTEX_POINT('',#544);
#192=VERTEX_POINT('',#547);
#193=VERTEX_POINT('',#549);
#194=VERTEX_POINT('',#553);
#195=VERTEX_POINT('',#556);
#196=VERTEX_POINT('',#558);
#197=VERTEX_POINT('',#561);
#198=VERTEX_POINT('',#563);
#199=VERTEX_POINT('',#567);
#200=VERTEX_POINT('',#569);
#201=VERTEX_POINT('',#573);
#202=VERTEX_POINT('',#576);
#203=VERTEX_POINT('',#584);
#204=VERTEX_POINT('',#585);
#205=VERTEX_POINT('',#587);
#206=VERTEX_POINT('',#589);
#207=VERTEX_POINT('',#592);
#208=VERTEX_POINT('',#595);
#209=VERTEX_POINT('',#597);
#210=VERTEX_POINT('',#601);
#211=VERTEX_POINT('',#603);
#212=VERTEX_POINT('',#606);
#213=VERTEX_POINT('',#609);
#214=VERTEX_POINT('',#611);
#215=VERTEX_POINT('',#614);
#216=VERTEX_POINT('',#617);
#217=VERTEX_POINT('',#621);
#218=VERTEX_POINT('',#624);
#219=EDGE_CURVE('',#187,#188,#167,.T.);
#220=EDGE_CURVE('',#189,#187,#127,.T.);
#221=EDGE_CURVE('',#189,#190,#128,.T.);
#222=EDGE_CURVE('',#188,#190,#129,.T.);
#223=EDGE_CURVE('',#191,#191,#168,.T.);
#224=EDGE_CURVE('',#192,#188,#130,.T.);
#225=EDGE_CURVE('',#193,#192,#169,.T.);
#226=EDGE_CURVE('',#193,#187,#131,.T.);
#227=EDGE_CURVE('',#193,#194,#132,.T.);
#228=EDGE_CURVE('',#194,#189,#133,.T.);
#229=EDGE_CURVE('',#195,#195,#170,.T.);
#230=EDGE_CURVE('',#196,#196,#171,.T.);
#231=EDGE_CURVE('',#197,#197,#172,.T.);
#232=EDGE_CURVE('',#198,#198,#173,.T.);
#233=EDGE_CURVE('',#199,#199,#174,.T.);
#234=EDGE_CURVE('',#200,#200,#175,.T.);
#235=EDGE_CURVE('',#201,#201,#176,.T.);
#236=EDGE_CURVE('',#202,#192,#134,.T.);
#237=EDGE_CURVE('',#194,#202,#135,.T.);
#238=EDGE_CURVE('',#190,#202,#136,.T.);
#239=EDGE_CURVE('',#203,#204,#177,.T.);
#240=EDGE_CURVE('',#205,#203,#137,.T.);
#241=EDGE_CURVE('',#205,#206,#138,.T.);
#242=EDGE_CURVE('',#204,#206,#139,.T.);
#243=EDGE_CURVE('',#207,#207,#178,.T.);
#244=EDGE_CURVE('',#208,#204,#140,.T.);
#245=EDGE_CURVE('',#209,#208,#179,.T.);
#246=EDGE_CURVE('',#209,#203,#141,.T.);
#247=EDGE_CURVE('',#210,#210,#180,.T.);
#248=EDGE_CURVE('',#211,#211,#181,.T.);
#249=EDGE_CURVE('',#212,#212,#182,.T.);
#250=EDGE_CURVE('',#213,#213,#183,.T.);
#251=EDGE_CURVE('',#214,#214,#184,.T.);
#252=EDGE_CURVE('',#215,#215,#185,.T.);
#253=EDGE_CURVE('',#209,#216,#142,.T.);
#254=EDGE_CURVE('',#216,#205,#143,.T.);
#255=EDGE_CURVE('',#217,#217,#186,.T.);
#256=EDGE_CURVE('',#218,#208,#144,.T.);
#257=EDGE_CURVE('',#216,#218,#145,.T.);
#258=EDGE_CURVE('',#206,#218,#146,.T.);
#259=ORIENTED_EDGE('',*,*,#219,.F.);
#260=ORIENTED_EDGE('',*,*,#220,.F.);
#261=ORIENTED_EDGE('',*,*,#221,.T.);
#262=ORIENTED_EDGE('',*,*,#222,.F.);
#263=ORIENTED_EDGE('',*,*,#223,.T.);
#264=ORIENTED_EDGE('',*,*,#219,.T.);
#265=ORIENTED_EDGE('',*,*,#224,.F.);
#266=ORIENTED_EDGE('',*,*,#225,.F.);
#267=ORIENTED_EDGE('',*,*,#226,.T.);
#268=ORIENTED_EDGE('',*,*,#226,.F.);
#269=ORIENTED_EDGE('',*,*,#227,.T.);
#270=ORIENTED_EDGE('',*,*,#228,.T.);
#271=ORIENTED_EDGE('',*,*,#220,.T.);
#272=ORIENTED_EDGE('',*,*,#229,.T.);
#273=ORIENTED_EDGE('',*,*,#230,.T.);
#274=ORIENTED_EDGE('',*,*,#231,.F.);
#275=ORIENTED_EDGE('',*,*,#232,.F.);
#276=ORIENTED_EDGE('',*,*,#230,.F.);
#277=ORIENTED_EDGE('',*,*,#232,.T.);
#278=ORIENTED_EDGE('',*,*,#233,.F.);
#279=ORIENTED_EDGE('',*,*,#234,.F.);
#280=ORIENTED_EDGE('',*,*,#229,.F.);
#281=ORIENTED_EDGE('',*,*,#234,.T.);
#282=ORIENTED_EDGE('',*,*,#235,.F.);
#283=ORIENTED_EDGE('',*,*,#223,.F.);
#284=ORIENTED_EDGE('',*,*,#225,.T.);
#285=ORIENTED_EDGE('',*,*,#236,.F.);
#286=ORIENTED_EDGE('',*,*,#237,.F.);
#287=ORIENTED_EDGE('',*,*,#227,.F.);
#288=ORIENTED_EDGE('',*,*,#235,.T.);
#289=ORIENTED_EDGE('',*,*,#224,.T.);
#290=ORIENTED_EDGE('',*,*,#222,.T.);
#291=ORIENTED_EDGE('',*,*,#238,.T.);
#292=ORIENTED_EDGE('',*,*,#236,.T.);
#293=ORIENTED_EDGE('',*,*,#231,.T.);
#294=ORIENTED_EDGE('',*,*,#233,.T.);
#295=ORIENTED_EDGE('',*,*,#228,.F.);
#296=ORIENTED_EDGE('',*,*,#237,.T.);
#297=ORIENTED_EDGE('',*,*,#238,.F.);
#298=ORIENTED_EDGE('',*,*,#221,.F.);
#299=ORIENTED_EDGE('',*,*,#239,.F.);
#300=ORIENTED_EDGE('',*,*,#240,.F.);
#301=ORIENTED_EDGE('',*,*,#241,.T.);
#302=ORIENTED_EDGE('',*,*,#242,.F.);
#303=ORIENTED_EDGE('',*,*,#243,.T.);
#304=ORIENTED_EDGE('',*,*,#239,.T.);
#305=ORIENTED_EDGE('',*,*,#244,.F.);
#306=ORIENTED_EDGE('',*,*,#245,.F.);
#307=ORIENTED_EDGE('',*,*,#246,.T.);
#308=ORIENTED_EDGE('',*,*,#247,.F.);
#309=ORIENTED_EDGE('',*,*,#248,.F.);
#310=ORIENTED_EDGE('',*,*,#249,.F.);
#311=ORIENTED_EDGE('',*,*,#248,.T.);
#312=ORIENTED_EDGE('',*,*,#250,.F.);
#313=ORIENTED_EDGE('',*,*,#251,.F.);
#314=ORIENTED_EDGE('',*,*,#252,.F.);
#315=ORIENTED_EDGE('',*,*,#251,.T.);
#316=ORIENTED_EDGE('',*,*,#246,.F.);
#317=ORIENTED_EDGE('',*,*,#253,.T.);
#318=ORIENTED_EDGE('',*,*,#254,.T.);
#319=ORIENTED_EDGE('',*,*,#240,.T.);
#320=ORIENTED_EDGE('',*,*,#247,.T.);
#321=ORIENTED_EDGE('',*,*,#250,.T.);
#322=ORIENTED_EDGE('',*,*,#255,.F.);
#323=ORIENTED_EDGE('',*,*,#243,.F.);
#324=ORIENTED_EDGE('',*,*,#245,.T.);
#325=ORIENTED_EDGE('',*,*,#256,.F.);
#326=ORIENTED_EDGE('',*,*,#257,.F.);
#327=ORIENTED_EDGE('',*,*,#253,.F.);
#328=ORIENTED_EDGE('',*,*,#255,.T.);
#329=ORIENTED_EDGE('',*,*,#244,.T.);
#330=ORIENTED_EDGE('',*,*,#242,.T.);
#331=ORIENTED_EDGE('',*,*,#258,.T.);
#332=ORIENTED_EDGE('',*,*,#256,.T.);
#333=ORIENTED_EDGE('',*,*,#249,.T.);
#334=ORIENTED_EDGE('',*,*,#252,.T.);
#335=ORIENTED_EDGE('',*,*,#254,.F.);
#336=ORIENTED_EDGE('',*,*,#257,.T.);
#337=ORIENTED_EDGE('',*,*,#258,.F.);
#338=ORIENTED_EDGE('',*,*,#241,.F.);
#339=PLANE('',#374);
#340=PLANE('',#379);
#341=PLANE('',#392);
#342=PLANE('',#393);
#343=PLANE('',#394);
#344=PLANE('',#396);
#345=PLANE('',#411);
#346=PLANE('',#414);
#347=PLANE('',#415);
#348=PLANE('',#416);
#349=ADVANCED_FACE('',(#61,#39),#339,.T.);
#350=ADVANCED_FACE('',(#62),#31,.T.);
#351=ADVANCED_FACE('',(#63,#40,#41),#340,.T.);
#352=ADVANCED_FACE('',(#64,#42),#27,.F.);
#353=ADVANCED_FACE('',(#65,#43),#32,.F.);
#354=ADVANCED_FACE('',(#66,#44),#28,.F.);
#355=ADVANCED_FACE('',(#67,#45),#33,.F.);
#356=ADVANCED_FACE('',(#68,#46),#34,.F.);
#357=ADVANCED_FACE('',(#69,#47),#341,.T.);
#358=ADVANCED_FACE('',(#70,#48,#49),#342,.T.);
#359=ADVANCED_FACE('',(#71),#343,.T.);
#360=ADVANCED_FACE('',(#72,#50),#344,.T.);
#361=ADVANCED_FACE('',(#73),#35,.T.);
#362=ADVANCED_FACE('',(#74,#51),#29,.F.);
#363=ADVANCED_FACE('',(#75,#52),#36,.F.);
#364=ADVANCED_FACE('',(#76,#53),#30,.F.);
#365=ADVANCED_FACE('',(#77,#54),#37,.F.);
#366=ADVANCED_FACE('',(#78,#55,#56),#345,.T.);
#367=ADVANCED_FACE('',(#79,#57),#38,.F.);
#368=ADVANCED_FACE('',(#80,#58),#346,.T.);
#369=ADVANCED_FACE('',(#81,#59,#60),#347,.T.);
#370=ADVANCED_FACE('',(#82),#348,.T.);
#371=CLOSED_SHELL('',(#349,#350,#351,#352,#353,#354,#355,#356,#357,#358,
#359));
#372=CLOSED_SHELL('',(#360,#361,#362,#363,#364,#365,#366,#367,#368,#369,
#370));
#373=AXIS2_PLACEMENT_3D('placement',#534,#420,#421);
#374=AXIS2_PLACEMENT_3D('',#535,#422,#423);
#375=AXIS2_PLACEMENT_3D('',#538,#424,#425);
#376=AXIS2_PLACEMENT_3D('',#545,#429,#430);
#377=AXIS2_PLACEMENT_3D('',#546,#431,#432);
#378=AXIS2_PLACEMENT_3D('',#550,#434,#435);
#379=AXIS2_PLACEMENT_3D('',#552,#437,#438);
#380=AXIS2_PLACEMENT_3D('',#557,#441,#442);
#381=AXIS2_PLACEMENT_3D('',#559,#443,#444);
#382=AXIS2_PLACEMENT_3D('',#560,#445,#446);
#383=AXIS2_PLACEMENT_3D('',#562,#447,#448);
#384=AXIS2_PLACEMENT_3D('',#564,#449,#450);
#385=AXIS2_PLACEMENT_3D('',#565,#451,#452);
#386=AXIS2_PLACEMENT_3D('',#566,#453,#454);
#387=AXIS2_PLACEMENT_3D('',#568,#455,#456);
#388=AXIS2_PLACEMENT_3D('',#570,#457,#458);
#389=AXIS2_PLACEMENT_3D('',#571,#459,#460);
#390=AXIS2_PLACEMENT_3D('',#572,#461,#462);
#391=AXIS2_PLACEMENT_3D('',#574,#463,#464);
#392=AXIS2_PLACEMENT_3D('',#575,#465,#466);
#393=AXIS2_PLACEMENT_3D('',#579,#469,#470);
#394=AXIS2_PLACEMENT_3D('',#581,#472,#473);
#395=AXIS2_PLACEMENT_3D('placement',#582,#474,#475);
#396=AXIS2_PLACEMENT_3D('',#583,#476,#477);
#397=AXIS2_PLACEMENT_3D('',#586,#478,#479);
#398=AXIS2_PLACEMENT_3D('',#593,#483,#484);
#399=AXIS2_PLACEMENT_3D('',#594,#485,#486);
#400=AXIS2_PLACEMENT_3D('',#598,#488,#489);
#401=AXIS2_PLACEMENT_3D('',#600,#491,#492);
#402=AXIS2_PLACEMENT_3D('',#602,#493,#494);
#403=AXIS2_PLACEMENT_3D('',#604,#495,#496);
#404=AXIS2_PLACEMENT_3D('',#605,#497,#498);
#405=AXIS2_PLACEMENT_3D('',#607,#499,#500);
#406=AXIS2_PLACEMENT_3D('',#608,#501,#502);
#407=AXIS2_PLACEMENT_3D('',#610,#503,#504);
#408=AXIS2_PLACEMENT_3D('',#612,#505,#506);
#409=AXIS2_PLACEMENT_3D('',#613,#507,#508);
#410=AXIS2_PLACEMENT_3D('',#615,#509,#510);
#411=AXIS2_PLACEMENT_3D('',#616,#511,#512);
#412=AXIS2_PLACEMENT_3D('',#620,#515,#516);
#413=AXIS2_PLACEMENT_3D('',#622,#517,#518);
#414=AXIS2_PLACEMENT_3D('',#623,#519,#520);
#415=AXIS2_PLACEMENT_3D('',#627,#523,#524);
#416=AXIS2_PLACEMENT_3D('',#629,#526,#527);
#417=AXIS2_PLACEMENT_3D('placement',#630,#528,#529);
#418=AXIS2_PLACEMENT_3D('',#631,#530,#531);
#419=AXIS2_PLACEMENT_3D('',#632,#532,#533);
#420=DIRECTION('axis',(0.,0.,1.));
#421=DIRECTION('refdir',(1.,0.,0.));
#422=DIRECTION('center_axis',(0.,0.,1.));
#423=DIRECTION('ref_axis',(1.,0.,0.));
#424=DIRECTION('center_axis',(0.,0.,-1.));
#425=DIRECTION('ref_axis',(-1.,0.,0.));
#426=DIRECTION('',(-1.,0.,0.));
#427=DIRECTION('',(0.,1.,0.));
#428=DIRECTION('',(1.,0.,0.));
#429=DIRECTION('center_axis',(0.,0.,-1.));
#430=DIRECTION('ref_axis',(1.,0.,0.));
#431=DIRECTION('center_axis',(0.,0.,-1.));
#432=DIRECTION('ref_axis',(-1.,0.,0.));
#433=DIRECTION('',(0.,0.,1.));
#434=DIRECTION('center_axis',(0.,0.,-1.));
#435=DIRECTION('ref_axis',(-1.,0.,0.));
#436=DIRECTION('',(0.,0.,1.));
#437=DIRECTION('center_axis',(0.,-1.,0.));
#438=DIRECTION('ref_axis',(0.,0.,-1.));
#439=DIRECTION('',(1.,0.,0.));
#440=DIRECTION('',(2.69144975666705E-16,0.,1.));
#441=DIRECTION('center_axis',(0.,1.,0.));
#442=DIRECTION('ref_axis',(1.,0.,0.));
#443=DIRECTION('center_axis',(0.,1.,0.));
#444=DIRECTION('ref_axis',(1.,0.,0.));
#445=DIRECTION('center_axis',(0.,1.,0.));
#446=DIRECTION('ref_axis',(1.,0.,0.));
#447=DIRECTION('center_axis',(0.,-1.,0.));
#448=DIRECTION('ref_axis',(1.,0.,0.));
#449=DIRECTION('center_axis',(0.,1.,0.));
#450=DIRECTION('ref_axis',(1.,0.,0.));
#451=DIRECTION('center_axis',(0.,1.,0.));
#452=DIRECTION('ref_axis',(1.,0.,0.));
#453=DIRECTION('center_axis',(0.,1.,0.));
#454=DIRECTION('ref_axis',(1.,0.,0.));
#455=DIRECTION('center_axis',(0.,-1.,0.));
#456=DIRECTION('ref_axis',(1.,0.,0.));
#457=DIRECTION('center_axis',(0.,1.,0.));
#458=DIRECTION('ref_axis',(1.,0.,0.));
#459=DIRECTION('center_axis',(0.,1.,0.));
#460=DIRECTION('ref_axis',(1.,0.,0.));
#461=DIRECTION('center_axis',(0.,0.,1.));
#462=DIRECTION('ref_axis',(1.,0.,0.));
#463=DIRECTION('center_axis',(0.,0.,1.));
#464=DIRECTION('ref_axis',(1.,0.,0.));
#465=DIRECTION('center_axis',(0.,0.,-1.));
#466=DIRECTION('ref_axis',(-1.,0.,0.));
#467=DIRECTION('',(-1.,0.,0.));
#468=DIRECTION('',(0.,1.,0.));
#469=DIRECTION('center_axis',(0.,1.,0.));
#470=DIRECTION('ref_axis',(0.,0.,1.));
#471=DIRECTION('',(-2.69144975666705E-16,0.,-1.));
#472=DIRECTION('center_axis',(1.,0.,-2.69144975666705E-16));
#473=DIRECTION('ref_axis',(-3.5527136788005E-16,0.,-1.));
#474=DIRECTION('axis',(0.,0.,1.));
#475=DIRECTION('refdir',(1.,0.,0.));
#476=DIRECTION('center_axis',(0.,0.,1.));
#477=DIRECTION('ref_axis',(1.,0.,0.));
#478=DIRECTION('center_axis',(0.,0.,-1.));
#479=DIRECTION('ref_axis',(-1.,0.,0.));
#480=DIRECTION('',(-1.,0.,0.));
#481=DIRECTION('',(0.,1.,0.));
#482=DIRECTION('',(1.,0.,0.));
#483=DIRECTION('center_axis',(0.,0.,-1.));
#484=DIRECTION('ref_axis',(1.,0.,0.));
#485=DIRECTION('center_axis',(0.,0.,-1.));
#486=DIRECTION('ref_axis',(-1.,0.,0.));
#487=DIRECTION('',(0.,0.,1.));
#488=DIRECTION('center_axis',(0.,0.,-1.));
#489=DIRECTION('ref_axis',(-1.,0.,0.));
#490=DIRECTION('',(0.,0.,1.));
#491=DIRECTION('center_axis',(0.,-1.,0.));
#492=DIRECTION('ref_axis',(1.,0.,0.));
#493=DIRECTION('center_axis',(0.,1.,0.));
#494=DIRECTION('ref_axis',(1.,0.,0.));
#495=DIRECTION('center_axis',(0.,-1.,0.));
#496=DIRECTION('ref_axis',(1.,0.,0.));
#497=DIRECTION('center_axis',(0.,-1.,0.));
#498=DIRECTION('ref_axis',(1.,0.,0.));
#499=DIRECTION('center_axis',(0.,-1.,0.));
#500=DIRECTION('ref_axis',(1.,0.,0.));
#501=DIRECTION('center_axis',(0.,-1.,0.));
#502=DIRECTION('ref_axis',(1.,0.,0.));
#503=DIRECTION('center_axis',(0.,1.,0.));
#504=DIRECTION('ref_axis',(1.,0.,0.));
#505=DIRECTION('center_axis',(0.,-1.,0.));
#506=DIRECTION('ref_axis',(1.,0.,0.));
#507=DIRECTION('center_axis',(0.,-1.,0.));
#508=DIRECTION('ref_axis',(1.,0.,0.));
#509=DIRECTION('center_axis',(0.,-1.,0.));
#510=DIRECTION('ref_axis',(1.,0.,0.));
#511=DIRECTION('center_axis',(0.,-1.,0.));
#512=DIRECTION('ref_axis',(0.,0.,-1.));
#513=DIRECTION('',(1.,0.,0.));
#514=DIRECTION('',(2.69144975666705E-16,0.,1.));
#515=DIRECTION('center_axis',(0.,0.,1.));
#516=DIRECTION('ref_axis',(1.,0.,0.));
#517=DIRECTION('center_axis',(0.,0.,1.));
#518=DIRECTION('ref_axis',(1.,0.,0.));
#519=DIRECTION('center_axis',(0.,0.,-1.));
#520=DIRECTION('ref_axis',(-1.,0.,0.));
#521=DIRECTION('',(-1.,0.,0.));
#522=DIRECTION('',(0.,1.,0.));
#523=DIRECTION('center_axis',(0.,1.,0.));
#524=DIRECTION('ref_axis',(0.,0.,1.));
#525=DIRECTION('',(-2.69144975666705E-16,0.,-1.));
#526=DIRECTION('center_axis',(1.,0.,-2.69144975666705E-16));
#527=DIRECTION('ref_axis',(-3.5527136788005E-16,0.,-1.));
#528=DIRECTION('axis',(0.,0.,1.));
#529=DIRECTION('refdir',(1.,0.,0.));
#530=DIRECTION('',(7.65366046768185E-17,-6.41183190750942E-17,1.));
#531=DIRECTION('',(0.972676169748941,0.232166037142667,-5.9559235434723E-17));
#532=DIRECTION('',(-6.52243156522273E-15,6.21586499341994E-16,1.));
#533=DIRECTION('',(-0.996910524380309,0.0785455688105805,-6.55110353707666E-15));
#534=CARTESIAN_POINT('',(0.,0.,0.));
#535=CARTESIAN_POINT('Origin',(-22.5,0.,24.75));
#536=CARTESIAN_POINT('',(-17.,0.,24.75));
#537=CARTESIAN_POINT('',(-11.591673086804,4.5,24.75));
#538=CARTESIAN_POINT('Origin',(-17.,5.5,24.75));
#539=CARTESIAN_POINT('',(22.5,0.,24.75));
#540=CARTESIAN_POINT('',(22.5,0.,24.75));
#541=CARTESIAN_POINT('',(22.5,4.5,24.75));
#542=CARTESIAN_POINT('',(22.5,0.,24.75));
#543=CARTESIAN_POINT('',(22.5,4.5,24.75));
#544=CARTESIAN_POINT('',(-14.5,5.5,24.75));
#545=CARTESIAN_POINT('Origin',(-17.,5.5,24.75));
#546=CARTESIAN_POINT('Origin',(-17.,5.5,24.75));
#547=CARTESIAN_POINT('',(-11.591673086804,4.5,-24.75));
#548=CARTESIAN_POINT('',(-11.591673086804,4.5,24.75));
#549=CARTESIAN_POINT('',(-17.,0.,-24.75));
#550=CARTESIAN_POINT('Origin',(-17.,5.5,-24.75));
#551=CARTESIAN_POINT('',(-17.,0.,24.75));
#552=CARTESIAN_POINT('Origin',(-2.11471052309554E-15,0.,3.98270481849659E-15));
#553=CARTESIAN_POINT('',(22.5,0.,-24.75));
#554=CARTESIAN_POINT('',(-22.5,0.,-24.75));
#555=CARTESIAN_POINT('',(22.5,0.,-24.75));
#556=CARTESIAN_POINT('',(2.,0.,15.));
#557=CARTESIAN_POINT('Origin',(5.5,0.,15.));
#558=CARTESIAN_POINT('',(2.,0.,-15.));
#559=CARTESIAN_POINT('Origin',(5.5,0.,-15.));
#560=CARTESIAN_POINT('Origin',(5.5,3.,-15.));
#561=CARTESIAN_POINT('',(12.,4.5,-15.));
#562=CARTESIAN_POINT('Origin',(5.5,4.5,-15.));
#563=CARTESIAN_POINT('',(9.,1.5,-15.));
#564=CARTESIAN_POINT('Origin',(5.5,1.5,-15.));
#565=CARTESIAN_POINT('Origin',(5.5,-63.29564882793,-15.));
#566=CARTESIAN_POINT('Origin',(5.5,3.,15.));
#567=CARTESIAN_POINT('',(12.,4.5,15.));
#568=CARTESIAN_POINT('Origin',(5.5,4.5,15.));
#569=CARTESIAN_POINT('',(9.,1.5,15.));
#570=CARTESIAN_POINT('Origin',(5.5,1.5,15.));
#571=CARTESIAN_POINT('Origin',(5.5,-63.29564882793,15.));
#572=CARTESIAN_POINT('Origin',(-17.,5.5,-43.04564882793));
#573=CARTESIAN_POINT('',(-19.5,5.5,-24.75));
#574=CARTESIAN_POINT('Origin',(-17.,5.5,-24.75));
#575=CARTESIAN_POINT('Origin',(22.5,0.,-24.75));
#576=CARTESIAN_POINT('',(22.5,4.5,-24.75));
#577=CARTESIAN_POINT('',(-22.5,4.5,-24.75));
#578=CARTESIAN_POINT('',(22.5,0.,-24.75));
#579=CARTESIAN_POINT('Origin',(0.,4.5,4.44089209850063E-15));
#580=CARTESIAN_POINT('',(22.5,4.5,-24.75));
#581=CARTESIAN_POINT('Origin',(22.5,0.,24.75));
#582=CARTESIAN_POINT('',(0.,0.,0.));
#583=CARTESIAN_POINT('Origin',(-22.5,0.,24.75));
#584=CARTESIAN_POINT('',(-17.,0.,24.75));
#585=CARTESIAN_POINT('',(-11.591673086804,4.5,24.75));
#586=CARTESIAN_POINT('Origin',(-17.,5.5,24.75));
#587=CARTESIAN_POINT('',(22.5,0.,24.75));
#588=CARTESIAN_POINT('',(22.5,0.,24.75));
#589=CARTESIAN_POINT('',(22.5,4.5,24.75));
#590=CARTESIAN_POINT('',(22.5,0.,24.75));
#591=CARTESIAN_POINT('',(22.5,4.5,24.75));
#592=CARTESIAN_POINT('',(-14.5,5.5,24.75));
#593=CARTESIAN_POINT('Origin',(-17.,5.5,24.75));
#594=CARTESIAN_POINT('Origin',(-17.,5.5,24.75));
#595=CARTESIAN_POINT('',(-11.591673086804,4.5,-24.75));
#596=CARTESIAN_POINT('',(-11.591673086804,4.5,24.75));
#597=CARTESIAN_POINT('',(-17.,0.,-24.75));
#598=CARTESIAN_POINT('Origin',(-17.,5.5,-24.75));
#599=CARTESIAN_POINT('',(-17.,0.,24.75));
#600=CARTESIAN_POINT('Origin',(2.79583654340201,1.5,15.));
#601=CARTESIAN_POINT('',(9.29583654340201,0.,15.));
#602=CARTESIAN_POINT('Origin',(2.79583654340201,0.,15.));
#603=CARTESIAN_POINT('',(6.29583654340202,3.,15.));
#604=CARTESIAN_POINT('Origin',(2.79583654340201,3.,15.));
#605=CARTESIAN_POINT('Origin',(2.79583654340201,67.79564882793,15.));
#606=CARTESIAN_POINT('',(-0.704163456597985,4.5,15.));
#607=CARTESIAN_POINT('Origin',(2.79583654340201,4.5,15.));
#608=CARTESIAN_POINT('Origin',(2.79583654340201,1.5,-15.));
#609=CARTESIAN_POINT('',(9.29583654340201,0.,-15.));
#610=CARTESIAN_POINT('Origin',(2.79583654340201,0.,-15.));
#611=CARTESIAN_POINT('',(6.29583654340202,3.,-15.));
#612=CARTESIAN_POINT('Origin',(2.79583654340201,3.,-15.));
#613=CARTESIAN_POINT('Origin',(2.79583654340201,67.79564882793,-15.));
#614=CARTESIAN_POINT('',(-0.704163456597985,4.5,-15.));
#615=CARTESIAN_POINT('Origin',(2.79583654340201,4.5,-15.));
#616=CARTESIAN_POINT('Origin',(-2.11471052309554E-15,0.,3.98270481849659E-15));
#617=CARTESIAN_POINT('',(22.5,0.,-24.75));
#618=CARTESIAN_POINT('',(-22.5,0.,-24.75));
#619=CARTESIAN_POINT('',(22.5,0.,-24.75));
#620=CARTESIAN_POINT('Origin',(-17.,5.5,-43.04564882793));
#621=CARTESIAN_POINT('',(-19.5,5.5,-24.75));
#622=CARTESIAN_POINT('Origin',(-17.,5.5,-24.75));
#623=CARTESIAN_POINT('Origin',(22.5,0.,-24.75));
#624=CARTESIAN_POINT('',(22.5,4.5,-24.75));
#625=CARTESIAN_POINT('',(-22.5,4.5,-24.75));
#626=CARTESIAN_POINT('',(22.5,0.,-24.75));
#627=CARTESIAN_POINT('Origin',(0.,4.5,4.44089209850063E-15));
#628=CARTESIAN_POINT('',(22.5,4.5,-24.75));
#629=CARTESIAN_POINT('Origin',(22.5,0.,24.75));
#630=CARTESIAN_POINT('',(0.,0.,0.));
#631=CARTESIAN_POINT('',(0.,0.,0.));
#632=CARTESIAN_POINT('',(-34.3278863760236,8.22117885606544,-50.5000000000002));
#633=UNCERTAINTY_MEASURE_WITH_UNIT(LENGTH_MEASURE(0.01),#641,
'DISTANCE_ACCURACY_VALUE',
'Maximum model space distance between geometric entities at asserted c
onnectivities');
#634=UNCERTAINTY_MEASURE_WITH_UNIT(LENGTH_MEASURE(0.01),#641,
'DISTANCE_ACCURACY_VALUE',
'Maximum model space distance between geometric entities at asserted c
onnectivities');
#635=UNCERTAINTY_MEASURE_WITH_UNIT(LENGTH_MEASURE(0.01),#641,
'DISTANCE_ACCURACY_VALUE',
'Maximum model space distance between geometric entities at asserted c
onnectivities');
#636=UNCERTAINTY_MEASURE_WITH_UNIT(LENGTH_MEASURE(1.E-6),#641,
'DISTANCE_ACCURACY_VALUE',
'Maximum model space distance between geometric entities at asserted c
onnectivities');
#637=(
GEOMETRIC_REPRESENTATION_CONTEXT(3)
GLOBAL_UNCERTAINTY_ASSIGNED_CONTEXT((#633))
GLOBAL_UNIT_ASSIGNED_CONTEXT((#641,#644,#642))
REPRESENTATION_CONTEXT('','3D')
);
#638=(
GEOMETRIC_REPRESENTATION_CONTEXT(3)
GLOBAL_UNCERTAINTY_ASSIGNED_CONTEXT((#634))
GLOBAL_UNIT_ASSIGNED_CONTEXT((#641,#644,#642))
REPRESENTATION_CONTEXT('','3D')
);
#639=(
GEOMETRIC_REPRESENTATION_CONTEXT(3)
GLOBAL_UNCERTAINTY_ASSIGNED_CONTEXT((#635))
GLOBAL_UNIT_ASSIGNED_CONTEXT((#641,#644,#642))
REPRESENTATION_CONTEXT('','3D')
);
#640=(
GEOMETRIC_REPRESENTATION_CONTEXT(3)
GLOBAL_UNCERTAINTY_ASSIGNED_CONTEXT((#636))
GLOBAL_UNIT_ASSIGNED_CONTEXT((#641,#644,#642))
REPRESENTATION_CONTEXT('','3D')
);
#641=(
LENGTH_UNIT()
NAMED_UNIT(*)
SI_UNIT(.MILLI.,.METRE.)
);
#642=(
NAMED_UNIT(*)
SI_UNIT($,.STERADIAN.)
SOLID_ANGLE_UNIT()
);
#643=DIMENSIONAL_EXPONENTS(0.,0.,0.,0.,0.,0.,0.);
#644=(
CONVERSION_BASED_UNIT('degree',#646)
NAMED_UNIT(#643)
PLANE_ANGLE_UNIT()
);
#645=(
NAMED_UNIT(*)
PLANE_ANGLE_UNIT()
SI_UNIT($,.RADIAN.)
);
#646=PLANE_ANGLE_MEASURE_WITH_UNIT(PLANE_ANGLE_MEASURE(0.01745329252),#645);
#647=SHAPE_DEFINITION_REPRESENTATION(#650,#655);
#648=SHAPE_DEFINITION_REPRESENTATION(#651,#656);
#649=SHAPE_DEFINITION_REPRESENTATION(#652,#657);
#650=PRODUCT_DEFINITION_SHAPE('',$,#659);
#651=PRODUCT_DEFINITION_SHAPE('',$,#660);
#652=PRODUCT_DEFINITION_SHAPE('',$,#661);
#653=PRODUCT_DEFINITION_SHAPE($,$,#17);
#654=PRODUCT_DEFINITION_SHAPE($,$,#18);
#655=SHAPE_REPRESENTATION('',(#373),#637);
#656=SHAPE_REPRESENTATION('',(#395),#638);
#657=SHAPE_REPRESENTATION('',(#417,#418,#419),#639);
#658=PRODUCT_DEFINITION_CONTEXT('part definition',#669,'design');
#659=PRODUCT_DEFINITION('AH408P','AH408P',#662,#658);
#660=PRODUCT_DEFINITION('AH408P-L','AH408P-L',#663,#658);
#661=PRODUCT_DEFINITION('AH408P','AH408P',#664,#658);
#662=PRODUCT_DEFINITION_FORMATION('',$,#671);
#663=PRODUCT_DEFINITION_FORMATION('',$,#672);
#664=PRODUCT_DEFINITION_FORMATION('',$,#673);
#665=PRODUCT_RELATED_PRODUCT_CATEGORY('AH408P','AH408P',(#671));
#666=PRODUCT_RELATED_PRODUCT_CATEGORY('AH408P-L','AH408P-L',(#672));
#667=PRODUCT_RELATED_PRODUCT_CATEGORY('AH408P','AH408P',(#673));
#668=APPLICATION_PROTOCOL_DEFINITION('international standard',
'automotive_design',2009,#669);
#669=APPLICATION_CONTEXT(
'Core Data for Automotive Mechanical Design Process');
#670=PRODUCT_CONTEXT('part definition',#669,'mechanical');
#671=PRODUCT('AH408P','AH408P',$,(#670));
#672=PRODUCT('AH408P-L','AH408P-L',$,(#670));
#673=PRODUCT('AH408P','AH408P',$,(#670));
#674=PRESENTATION_STYLE_ASSIGNMENT((#675));
#675=SURFACE_STYLE_USAGE(.BOTH.,#676);
#676=SURFACE_SIDE_STYLE($,(#677));
#677=SURFACE_STYLE_FILL_AREA(#678);
#678=FILL_AREA_STYLE($,(#679));
#679=FILL_AREA_STYLE_COLOUR($,#680);
#680=COLOUR_RGB('',0.749019607843137,0.749019607843137,0.749019607843137);
ENDSEC;
END-ISO-10303-21;
