ISO-10303-21;
HEADER;
/* Generated by software containing ST-Developer
 * from STEP Tools, Inc. (www.steptools.com) 
 */

FILE_DESCRIPTION(
/* description */ (''),
/* implementation_level */ '2;1');

FILE_NAME(
/* name */ 'D:\\\X2\96F64EF6\X0\\\M8\X2\7CFB5217\X0\\\\X2\914D4EF6\X0\\\
\X2\6D3B9801\X0\\\AH408.stp',
/* time_stamp */ '2025-04-01T14:51:09+08:00',
/* author */ ('1091212-1'),
/* organization */ (''),
/* preprocessor_version */ 'ST-DEVELOPER v15.6',
/* originating_system */ 'Autodesk Inventor 2015',
/* authorisation */ '');

FILE_SCHEMA (('AUTOMOTIVE_DESIGN { 1 0 10303 214 3 1 1 }'));
ENDSEC;

DATA;
#10=MECHANICAL_DESIGN_GEOMETRIC_PRESENTATION_REPRESENTATION('',(#21),#485);
#11=ITEM_DEFINED_TRANSFORMATION($,$,#281,#314);
#12=ITEM_DEFINED_TRANSFORMATION($,$,#281,#315);
#13=(
REPRESENTATION_RELATIONSHIP($,$,#498,#499)
REPRESENTATION_RELATIONSHIP_WITH_TRANSFORMATION(#11)
SHAPE_REPRESENTATION_RELATIONSHIP()
);
#14=(
REPRESENTATION_RELATIONSHIP($,$,#498,#499)
REPRESENTATION_RELATIONSHIP_WITH_TRANSFORMATION(#12)
SHAPE_REPRESENTATION_RELATIONSHIP()
);
#15=CONTEXT_DEPENDENT_SHAPE_REPRESENTATION(#13,#496);
#16=CONTEXT_DEPENDENT_SHAPE_REPRESENTATION(#14,#497);
#17=NEXT_ASSEMBLY_USAGE_OCCURRENCE('AH408:1',$,$,#502,#501,$);
#18=NEXT_ASSEMBLY_USAGE_OCCURRENCE('AH408:2',$,$,#502,#501,$);
#19=SHAPE_REPRESENTATION_RELATIONSHIP('SRR','None',#498,#20);
#20=ADVANCED_BREP_SHAPE_REPRESENTATION($,(#22),#483);
#21=STYLED_ITEM('',(#512),#22);
#22=MANIFOLD_SOLID_BREP('\X2\5BE69AD4\X0\1',#280);
#23=LINE('',#432,#41);
#24=LINE('',#434,#42);
#25=LINE('',#435,#43);
#26=LINE('',#437,#44);
#27=LINE('',#439,#45);
#28=LINE('',#440,#46);
#29=LINE('',#442,#47);
#30=LINE('',#443,#48);
#31=LINE('',#454,#49);
#32=LINE('',#456,#50);
#33=LINE('',#457,#51);
#34=LINE('',#462,#52);
#35=LINE('',#465,#53);
#36=LINE('',#467,#54);
#37=LINE('',#469,#55);
#38=LINE('',#470,#56);
#39=LINE('',#472,#57);
#40=LINE('',#475,#58);
#41=VECTOR('',#352,7.85857157145715);
#42=VECTOR('',#353,16.);
#43=VECTOR('',#354,22.3585715714572);
#44=VECTOR('',#355,9.5);
#45=VECTOR('',#356,32.);
#46=VECTOR('',#357,9.5);
#47=VECTOR('',#358,14.5);
#48=VECTOR('',#359,16.);
#49=VECTOR('',#372,6.);
#50=VECTOR('',#373,16.);
#51=VECTOR('',#374,6.);
#52=VECTOR('',#379,16.);
#53=VECTOR('',#384,0.717143142914304);
#54=VECTOR('',#385,24.);
#55=VECTOR('',#386,32.);
#56=VECTOR('',#387,24.7171431429143);
#57=VECTOR('',#390,6.);
#58=VECTOR('',#395,6.);
#59=PLANE('',#293);
#60=PLANE('',#297);
#61=PLANE('',#298);
#62=PLANE('',#304);
#63=PLANE('',#308);
#64=PLANE('',#309);
#65=PLANE('',#310);
#66=PLANE('',#311);
#67=PLANE('',#312);
#68=FACE_BOUND('',#104,.T.);
#69=FACE_BOUND('',#107,.T.);
#70=FACE_BOUND('',#109,.T.);
#71=FACE_BOUND('',#111,.T.);
#72=FACE_BOUND('',#113,.T.);
#73=FACE_BOUND('',#115,.T.);
#74=FACE_BOUND('',#117,.T.);
#75=FACE_BOUND('',#119,.T.);
#76=FACE_BOUND('',#121,.T.);
#77=FACE_BOUND('',#125,.T.);
#78=CYLINDRICAL_SURFACE('',#284,2.5);
#79=CYLINDRICAL_SURFACE('',#288,2.5);
#80=CYLINDRICAL_SURFACE('',#290,4.5);
#81=CYLINDRICAL_SURFACE('',#294,4.5);
#82=CYLINDRICAL_SURFACE('',#303,3.5);
#83=CYLINDRICAL_SURFACE('',#305,7.25);
#84=FACE_OUTER_BOUND('',#102,.T.);
#85=FACE_OUTER_BOUND('',#103,.T.);
#86=FACE_OUTER_BOUND('',#105,.T.);
#87=FACE_OUTER_BOUND('',#106,.T.);
#88=FACE_OUTER_BOUND('',#108,.T.);
#89=FACE_OUTER_BOUND('',#110,.T.);
#90=FACE_OUTER_BOUND('',#112,.T.);
#91=FACE_OUTER_BOUND('',#114,.T.);
#92=FACE_OUTER_BOUND('',#116,.T.);
#93=FACE_OUTER_BOUND('',#118,.T.);
#94=FACE_OUTER_BOUND('',#120,.T.);
#95=FACE_OUTER_BOUND('',#122,.T.);
#96=FACE_OUTER_BOUND('',#123,.T.);
#97=FACE_OUTER_BOUND('',#124,.T.);
#98=FACE_OUTER_BOUND('',#126,.T.);
#99=FACE_OUTER_BOUND('',#127,.T.);
#100=FACE_OUTER_BOUND('',#128,.T.);
#101=FACE_OUTER_BOUND('',#129,.T.);
#102=EDGE_LOOP('',(#197));
#103=EDGE_LOOP('',(#198));
#104=EDGE_LOOP('',(#199));
#105=EDGE_LOOP('',(#200));
#106=EDGE_LOOP('',(#201));
#107=EDGE_LOOP('',(#202));
#108=EDGE_LOOP('',(#203));
#109=EDGE_LOOP('',(#204));
#110=EDGE_LOOP('',(#205));
#111=EDGE_LOOP('',(#206));
#112=EDGE_LOOP('',(#207));
#113=EDGE_LOOP('',(#208));
#114=EDGE_LOOP('',(#209));
#115=EDGE_LOOP('',(#210));
#116=EDGE_LOOP('',(#211,#212,#213,#214,#215,#216,#217,#218,#219,#220));
#117=EDGE_LOOP('',(#221));
#118=EDGE_LOOP('',(#222));
#119=EDGE_LOOP('',(#223));
#120=EDGE_LOOP('',(#224));
#121=EDGE_LOOP('',(#225));
#122=EDGE_LOOP('',(#226,#227,#228,#229));
#123=EDGE_LOOP('',(#230,#231,#232,#233));
#124=EDGE_LOOP('',(#234,#235,#236,#237,#238,#239));
#125=EDGE_LOOP('',(#240));
#126=EDGE_LOOP('',(#241,#242,#243,#244,#245));
#127=EDGE_LOOP('',(#246,#247,#248,#249));
#128=EDGE_LOOP('',(#250,#251,#252,#253));
#129=EDGE_LOOP('',(#254,#255,#256,#257,#258));
#130=CIRCLE('',#283,2.5);
#131=CIRCLE('',#285,2.5);
#132=CIRCLE('',#287,2.5);
#133=CIRCLE('',#289,2.5);
#134=CIRCLE('',#291,4.5);
#135=CIRCLE('',#292,4.5);
#136=CIRCLE('',#295,4.5);
#137=CIRCLE('',#296,4.5);
#138=CIRCLE('',#299,3.5);
#139=CIRCLE('',#301,6.5);
#140=CIRCLE('',#302,3.5);
#141=CIRCLE('',#306,7.25);
#142=CIRCLE('',#307,7.25);
#143=VERTEX_POINT('',#406);
#144=VERTEX_POINT('',#409);
#145=VERTEX_POINT('',#412);
#146=VERTEX_POINT('',#415);
#147=VERTEX_POINT('',#418);
#148=VERTEX_POINT('',#420);
#149=VERTEX_POINT('',#424);
#150=VERTEX_POINT('',#426);
#151=VERTEX_POINT('',#430);
#152=VERTEX_POINT('',#431);
#153=VERTEX_POINT('',#433);
#154=VERTEX_POINT('',#436);
#155=VERTEX_POINT('',#438);
#156=VERTEX_POINT('',#441);
#157=VERTEX_POINT('',#444);
#158=VERTEX_POINT('',#447);
#159=VERTEX_POINT('',#449);
#160=VERTEX_POINT('',#453);
#161=VERTEX_POINT('',#455);
#162=VERTEX_POINT('',#459);
#163=VERTEX_POINT('',#461);
#164=VERTEX_POINT('',#466);
#165=VERTEX_POINT('',#468);
#166=EDGE_CURVE('',#143,#143,#130,.T.);
#167=EDGE_CURVE('',#144,#144,#131,.T.);
#168=EDGE_CURVE('',#145,#145,#132,.T.);
#169=EDGE_CURVE('',#146,#146,#133,.T.);
#170=EDGE_CURVE('',#147,#147,#134,.T.);
#171=EDGE_CURVE('',#148,#148,#135,.T.);
#172=EDGE_CURVE('',#149,#149,#136,.T.);
#173=EDGE_CURVE('',#150,#150,#137,.T.);
#174=EDGE_CURVE('',#151,#152,#23,.T.);
#175=EDGE_CURVE('',#152,#153,#24,.T.);
#176=EDGE_CURVE('',#153,#148,#25,.T.);
#177=EDGE_CURVE('',#148,#154,#26,.T.);
#178=EDGE_CURVE('',#154,#155,#27,.T.);
#179=EDGE_CURVE('',#155,#150,#28,.T.);
#180=EDGE_CURVE('',#150,#156,#29,.T.);
#181=EDGE_CURVE('',#156,#151,#30,.T.);
#182=EDGE_CURVE('',#157,#157,#138,.T.);
#183=EDGE_CURVE('',#158,#158,#139,.T.);
#184=EDGE_CURVE('',#159,#159,#140,.T.);
#185=EDGE_CURVE('',#160,#156,#31,.T.);
#186=EDGE_CURVE('',#161,#160,#32,.T.);
#187=EDGE_CURVE('',#161,#151,#33,.T.);
#188=EDGE_CURVE('',#152,#162,#141,.T.);
#189=EDGE_CURVE('',#163,#162,#34,.T.);
#190=EDGE_CURVE('',#153,#163,#142,.T.);
#191=EDGE_CURVE('',#162,#161,#35,.T.);
#192=EDGE_CURVE('',#160,#164,#36,.T.);
#193=EDGE_CURVE('',#164,#165,#37,.T.);
#194=EDGE_CURVE('',#165,#163,#38,.T.);
#195=EDGE_CURVE('',#154,#165,#39,.T.);
#196=EDGE_CURVE('',#155,#164,#40,.T.);
#197=ORIENTED_EDGE('',*,*,#166,.T.);
#198=ORIENTED_EDGE('',*,*,#167,.F.);
#199=ORIENTED_EDGE('',*,*,#166,.F.);
#200=ORIENTED_EDGE('',*,*,#168,.T.);
#201=ORIENTED_EDGE('',*,*,#169,.F.);
#202=ORIENTED_EDGE('',*,*,#168,.F.);
#203=ORIENTED_EDGE('',*,*,#170,.F.);
#204=ORIENTED_EDGE('',*,*,#171,.F.);
#205=ORIENTED_EDGE('',*,*,#170,.T.);
#206=ORIENTED_EDGE('',*,*,#167,.T.);
#207=ORIENTED_EDGE('',*,*,#172,.F.);
#208=ORIENTED_EDGE('',*,*,#173,.F.);
#209=ORIENTED_EDGE('',*,*,#172,.T.);
#210=ORIENTED_EDGE('',*,*,#169,.T.);
#211=ORIENTED_EDGE('',*,*,#174,.T.);
#212=ORIENTED_EDGE('',*,*,#175,.T.);
#213=ORIENTED_EDGE('',*,*,#176,.T.);
#214=ORIENTED_EDGE('',*,*,#171,.T.);
#215=ORIENTED_EDGE('',*,*,#177,.T.);
#216=ORIENTED_EDGE('',*,*,#178,.T.);
#217=ORIENTED_EDGE('',*,*,#179,.T.);
#218=ORIENTED_EDGE('',*,*,#173,.T.);
#219=ORIENTED_EDGE('',*,*,#180,.T.);
#220=ORIENTED_EDGE('',*,*,#181,.T.);
#221=ORIENTED_EDGE('',*,*,#182,.T.);
#222=ORIENTED_EDGE('',*,*,#183,.F.);
#223=ORIENTED_EDGE('',*,*,#184,.F.);
#224=ORIENTED_EDGE('',*,*,#182,.F.);
#225=ORIENTED_EDGE('',*,*,#184,.T.);
#226=ORIENTED_EDGE('',*,*,#181,.F.);
#227=ORIENTED_EDGE('',*,*,#185,.F.);
#228=ORIENTED_EDGE('',*,*,#186,.F.);
#229=ORIENTED_EDGE('',*,*,#187,.T.);
#230=ORIENTED_EDGE('',*,*,#188,.T.);
#231=ORIENTED_EDGE('',*,*,#189,.F.);
#232=ORIENTED_EDGE('',*,*,#190,.F.);
#233=ORIENTED_EDGE('',*,*,#175,.F.);
#234=ORIENTED_EDGE('',*,*,#191,.T.);
#235=ORIENTED_EDGE('',*,*,#186,.T.);
#236=ORIENTED_EDGE('',*,*,#192,.T.);
#237=ORIENTED_EDGE('',*,*,#193,.T.);
#238=ORIENTED_EDGE('',*,*,#194,.T.);
#239=ORIENTED_EDGE('',*,*,#189,.T.);
#240=ORIENTED_EDGE('',*,*,#183,.T.);
#241=ORIENTED_EDGE('',*,*,#190,.T.);
#242=ORIENTED_EDGE('',*,*,#194,.F.);
#243=ORIENTED_EDGE('',*,*,#195,.F.);
#244=ORIENTED_EDGE('',*,*,#177,.F.);
#245=ORIENTED_EDGE('',*,*,#176,.F.);
#246=ORIENTED_EDGE('',*,*,#188,.F.);
#247=ORIENTED_EDGE('',*,*,#174,.F.);
#248=ORIENTED_EDGE('',*,*,#187,.F.);
#249=ORIENTED_EDGE('',*,*,#191,.F.);
#250=ORIENTED_EDGE('',*,*,#178,.F.);
#251=ORIENTED_EDGE('',*,*,#195,.T.);
#252=ORIENTED_EDGE('',*,*,#193,.F.);
#253=ORIENTED_EDGE('',*,*,#196,.F.);
#254=ORIENTED_EDGE('',*,*,#185,.T.);
#255=ORIENTED_EDGE('',*,*,#180,.F.);
#256=ORIENTED_EDGE('',*,*,#179,.F.);
#257=ORIENTED_EDGE('',*,*,#196,.T.);
#258=ORIENTED_EDGE('',*,*,#192,.F.);
#259=CONICAL_SURFACE('',#282,1.25,59.);
#260=CONICAL_SURFACE('',#286,1.25,59.);
#261=CONICAL_SURFACE('',#300,5.,45.);
#262=ADVANCED_FACE('',(#84),#259,.F.);
#263=ADVANCED_FACE('',(#85,#68),#78,.F.);
#264=ADVANCED_FACE('',(#86),#260,.F.);
#265=ADVANCED_FACE('',(#87,#69),#79,.F.);
#266=ADVANCED_FACE('',(#88,#70),#80,.T.);
#267=ADVANCED_FACE('',(#89,#71),#59,.F.);
#268=ADVANCED_FACE('',(#90,#72),#81,.T.);
#269=ADVANCED_FACE('',(#91,#73),#60,.F.);
#270=ADVANCED_FACE('',(#92,#74),#61,.T.);
#271=ADVANCED_FACE('',(#93,#75),#261,.F.);
#272=ADVANCED_FACE('',(#94,#76),#82,.F.);
#273=ADVANCED_FACE('',(#95),#62,.F.);
#274=ADVANCED_FACE('',(#96),#83,.T.);
#275=ADVANCED_FACE('',(#97,#77),#63,.T.);
#276=ADVANCED_FACE('',(#98),#64,.T.);
#277=ADVANCED_FACE('',(#99),#65,.F.);
#278=ADVANCED_FACE('',(#100),#66,.T.);
#279=ADVANCED_FACE('',(#101),#67,.T.);
#280=CLOSED_SHELL('',(#262,#263,#264,#265,#266,#267,#268,#269,#270,#271,
#272,#273,#274,#275,#276,#277,#278,#279));
#281=AXIS2_PLACEMENT_3D('placement',#404,#316,#317);
#282=AXIS2_PLACEMENT_3D('',#405,#318,#319);
#283=AXIS2_PLACEMENT_3D('',#407,#320,#321);
#284=AXIS2_PLACEMENT_3D('',#408,#322,#323);
#285=AXIS2_PLACEMENT_3D('',#410,#324,#325);
#286=AXIS2_PLACEMENT_3D('',#411,#326,#327);
#287=AXIS2_PLACEMENT_3D('',#413,#328,#329);
#288=AXIS2_PLACEMENT_3D('',#414,#330,#331);
#289=AXIS2_PLACEMENT_3D('',#416,#332,#333);
#290=AXIS2_PLACEMENT_3D('',#417,#334,#335);
#291=AXIS2_PLACEMENT_3D('',#419,#336,#337);
#292=AXIS2_PLACEMENT_3D('',#421,#338,#339);
#293=AXIS2_PLACEMENT_3D('',#422,#340,#341);
#294=AXIS2_PLACEMENT_3D('',#423,#342,#343);
#295=AXIS2_PLACEMENT_3D('',#425,#344,#345);
#296=AXIS2_PLACEMENT_3D('',#427,#346,#347);
#297=AXIS2_PLACEMENT_3D('',#428,#348,#349);
#298=AXIS2_PLACEMENT_3D('',#429,#350,#351);
#299=AXIS2_PLACEMENT_3D('',#445,#360,#361);
#300=AXIS2_PLACEMENT_3D('',#446,#362,#363);
#301=AXIS2_PLACEMENT_3D('',#448,#364,#365);
#302=AXIS2_PLACEMENT_3D('',#450,#366,#367);
#303=AXIS2_PLACEMENT_3D('',#451,#368,#369);
#304=AXIS2_PLACEMENT_3D('',#452,#370,#371);
#305=AXIS2_PLACEMENT_3D('',#458,#375,#376);
#306=AXIS2_PLACEMENT_3D('',#460,#377,#378);
#307=AXIS2_PLACEMENT_3D('',#463,#380,#381);
#308=AXIS2_PLACEMENT_3D('',#464,#382,#383);
#309=AXIS2_PLACEMENT_3D('',#471,#388,#389);
#310=AXIS2_PLACEMENT_3D('',#473,#391,#392);
#311=AXIS2_PLACEMENT_3D('',#474,#393,#394);
#312=AXIS2_PLACEMENT_3D('',#476,#396,#397);
#313=AXIS2_PLACEMENT_3D('placement',#477,#398,#399);
#314=AXIS2_PLACEMENT_3D('',#478,#400,#401);
#315=AXIS2_PLACEMENT_3D('',#479,#402,#403);
#316=DIRECTION('axis',(0.,0.,1.));
#317=DIRECTION('refdir',(1.,0.,0.));
#318=DIRECTION('center_axis',(0.,-1.,0.));
#319=DIRECTION('ref_axis',(1.,0.,0.));
#320=DIRECTION('center_axis',(0.,-1.,0.));
#321=DIRECTION('ref_axis',(1.,0.,0.));
#322=DIRECTION('center_axis',(0.,-1.,0.));
#323=DIRECTION('ref_axis',(1.,0.,0.));
#324=DIRECTION('center_axis',(0.,1.,0.));
#325=DIRECTION('ref_axis',(1.,0.,0.));
#326=DIRECTION('center_axis',(0.,-1.,0.));
#327=DIRECTION('ref_axis',(1.,0.,0.));
#328=DIRECTION('center_axis',(0.,-1.,0.));
#329=DIRECTION('ref_axis',(1.,0.,0.));
#330=DIRECTION('center_axis',(0.,-1.,0.));
#331=DIRECTION('ref_axis',(1.,0.,0.));
#332=DIRECTION('center_axis',(0.,1.,0.));
#333=DIRECTION('ref_axis',(1.,0.,0.));
#334=DIRECTION('center_axis',(0.,-1.,0.));
#335=DIRECTION('ref_axis',(-1.,0.,0.));
#336=DIRECTION('center_axis',(0.,-1.,0.));
#337=DIRECTION('ref_axis',(-1.,0.,0.));
#338=DIRECTION('center_axis',(0.,1.,0.));
#339=DIRECTION('ref_axis',(-1.,0.,0.));
#340=DIRECTION('center_axis',(0.,1.,0.));
#341=DIRECTION('ref_axis',(0.,0.,1.));
#342=DIRECTION('center_axis',(0.,-1.,0.));
#343=DIRECTION('ref_axis',(-1.,0.,0.));
#344=DIRECTION('center_axis',(0.,-1.,0.));
#345=DIRECTION('ref_axis',(-1.,0.,0.));
#346=DIRECTION('center_axis',(0.,1.,0.));
#347=DIRECTION('ref_axis',(-1.,0.,0.));
#348=DIRECTION('center_axis',(0.,1.,0.));
#349=DIRECTION('ref_axis',(0.,0.,1.));
#350=DIRECTION('center_axis',(0.,-1.,0.));
#351=DIRECTION('ref_axis',(0.,0.,-1.));
#352=DIRECTION('',(1.,0.,0.));
#353=DIRECTION('',(0.,0.,1.));
#354=DIRECTION('',(-1.,0.,0.));
#355=DIRECTION('',(-1.,0.,0.));
#356=DIRECTION('',(6.93889390390723E-17,0.,-1.));
#357=DIRECTION('',(1.,0.,2.27738056333365E-16));
#358=DIRECTION('',(1.,0.,2.27738056333365E-16));
#359=DIRECTION('',(3.13758680872327E-16,0.,1.));
#360=DIRECTION('center_axis',(0.,1.,0.));
#361=DIRECTION('ref_axis',(1.,0.,0.));
#362=DIRECTION('center_axis',(0.,1.,0.));
#363=DIRECTION('ref_axis',(1.,0.,0.));
#364=DIRECTION('center_axis',(0.,-1.,0.));
#365=DIRECTION('ref_axis',(1.,0.,0.));
#366=DIRECTION('center_axis',(0.,1.,0.));
#367=DIRECTION('ref_axis',(1.,0.,0.));
#368=DIRECTION('center_axis',(0.,1.,0.));
#369=DIRECTION('ref_axis',(1.,0.,0.));
#370=DIRECTION('center_axis',(-1.,0.,3.13758680872327E-16));
#371=DIRECTION('ref_axis',(-3.5527136788005E-16,0.,-1.));
#372=DIRECTION('',(0.,-1.,0.));
#373=DIRECTION('',(-3.13758680872327E-16,0.,-1.));
#374=DIRECTION('',(0.,-1.,0.));
#375=DIRECTION('center_axis',(0.,0.,-1.));
#376=DIRECTION('ref_axis',(-1.,0.,0.));
#377=DIRECTION('center_axis',(0.,0.,1.));
#378=DIRECTION('ref_axis',(-1.,0.,0.));
#379=DIRECTION('',(0.,0.,-1.));
#380=DIRECTION('center_axis',(0.,0.,1.));
#381=DIRECTION('ref_axis',(-1.,0.,0.));
#382=DIRECTION('center_axis',(0.,1.,0.));
#383=DIRECTION('ref_axis',(0.,0.,1.));
#384=DIRECTION('',(-1.,0.,0.));
#385=DIRECTION('',(-1.,0.,-2.27738056333365E-16));
#386=DIRECTION('',(-6.93889390390723E-17,0.,1.));
#387=DIRECTION('',(1.,0.,0.));
#388=DIRECTION('center_axis',(0.,0.,1.));
#389=DIRECTION('ref_axis',(1.,0.,0.));
#390=DIRECTION('',(0.,1.,0.));
#391=DIRECTION('center_axis',(0.,0.,1.));
#392=DIRECTION('ref_axis',(1.,0.,0.));
#393=DIRECTION('center_axis',(-1.,0.,-6.93889390390723E-17));
#394=DIRECTION('ref_axis',(0.,0.,1.));
#395=DIRECTION('',(0.,1.,0.));
#396=DIRECTION('center_axis',(2.27738056333365E-16,0.,-1.));
#397=DIRECTION('ref_axis',(-1.,0.,-1.77635683940025E-16));
#398=DIRECTION('axis',(0.,0.,1.));
#399=DIRECTION('refdir',(1.,0.,0.));
#400=DIRECTION('',(1.20462555202535E-16,5.39975152506696E-16,1.));
#401=DIRECTION('',(0.983035639437043,-0.183414643899022,-1.93796346704086E-17));
#402=DIRECTION('',(4.58267243314201E-16,-3.45126646034193E-31,-1.));
#403=DIRECTION('',(-0.874002736757682,-0.485920997838211,-4.0052682482301E-16));
#404=CARTESIAN_POINT('',(0.,0.,0.));
#405=CARTESIAN_POINT('Origin',(-10.,4.75107577378445,11.5));
#406=CARTESIAN_POINT('',(-7.5,4.,11.5));
#407=CARTESIAN_POINT('Origin',(-10.,4.,11.5));
#408=CARTESIAN_POINT('Origin',(-10.,0.,11.5));
#409=CARTESIAN_POINT('',(-7.5,-4.,11.5));
#410=CARTESIAN_POINT('Origin',(-10.,-4.,11.5));
#411=CARTESIAN_POINT('Origin',(-10.,4.75107577378445,-11.5));
#412=CARTESIAN_POINT('',(-7.5,4.,-11.5));
#413=CARTESIAN_POINT('Origin',(-10.,4.,-11.5));
#414=CARTESIAN_POINT('Origin',(-10.,0.,-11.5));
#415=CARTESIAN_POINT('',(-7.5,-4.,-11.5));
#416=CARTESIAN_POINT('Origin',(-10.,-4.,-11.5));
#417=CARTESIAN_POINT('Origin',(-10.,0.,11.5));
#418=CARTESIAN_POINT('',(-5.5,-4.,11.5));
#419=CARTESIAN_POINT('Origin',(-10.,-4.,11.5));
#420=CARTESIAN_POINT('',(-10.,0.,16.));
#421=CARTESIAN_POINT('Origin',(-10.,0.,11.5));
#422=CARTESIAN_POINT('Origin',(-10.,-4.,11.5));
#423=CARTESIAN_POINT('Origin',(-10.,0.,-11.5));
#424=CARTESIAN_POINT('',(-5.50000000000001,-4.,-11.5));
#425=CARTESIAN_POINT('Origin',(-10.,-4.,-11.5));
#426=CARTESIAN_POINT('',(-10.,0.,-16.));
#427=CARTESIAN_POINT('Origin',(-10.,0.,-11.5));
#428=CARTESIAN_POINT('Origin',(-10.,-4.,-11.5));
#429=CARTESIAN_POINT('Origin',(-3.7528665621132E-15,0.,-1.8764332810566E-15));
#430=CARTESIAN_POINT('',(4.5,0.,-4.44089209850063E-15));
#431=CARTESIAN_POINT('',(12.3585715714572,0.,-4.44089209850063E-15));
#432=CARTESIAN_POINT('',(11.5,0.,-4.44089209850063E-15));
#433=CARTESIAN_POINT('',(12.3585715714572,0.,16.));
#434=CARTESIAN_POINT('',(12.3585715714572,0.,16.));
#435=CARTESIAN_POINT('',(19.5,0.,16.));
#436=CARTESIAN_POINT('',(-19.5,0.,16.));
#437=CARTESIAN_POINT('',(19.5,0.,16.));
#438=CARTESIAN_POINT('',(-19.5,0.,-16.));
#439=CARTESIAN_POINT('',(-19.5,0.,16.));
#440=CARTESIAN_POINT('',(-19.5,0.,-16.));
#441=CARTESIAN_POINT('',(4.5,0.,-16.));
#442=CARTESIAN_POINT('',(-19.5,0.,-16.));
#443=CARTESIAN_POINT('',(4.5,0.,-3.86461972174135E-15));
#444=CARTESIAN_POINT('',(-13.,0.,-4.01226571879905E-15));
#445=CARTESIAN_POINT('Origin',(-9.5,0.,-4.44089209850063E-15));
#446=CARTESIAN_POINT('Origin',(-9.5,4.5,-4.44089209850063E-15));
#447=CARTESIAN_POINT('',(-3.,6.,-4.44089209850063E-15));
#448=CARTESIAN_POINT('Origin',(-9.5,6.,-4.44089209850063E-15));
#449=CARTESIAN_POINT('',(-6.,3.,-4.44089209850063E-15));
#450=CARTESIAN_POINT('Origin',(-9.5,3.,-4.44089209850063E-15));
#451=CARTESIAN_POINT('Origin',(-9.5,-46.57119335111,-4.44089209850063E-15));
#452=CARTESIAN_POINT('Origin',(4.5,6.,-4.44089209850063E-15));
#453=CARTESIAN_POINT('',(4.5,6.,-16.));
#454=CARTESIAN_POINT('',(4.5,3.,-16.));
#455=CARTESIAN_POINT('',(4.5,6.,-4.44089209850063E-15));
#456=CARTESIAN_POINT('',(4.5,6.,-4.03662610583821E-15));
#457=CARTESIAN_POINT('',(4.5,6.,-4.44089209850063E-15));
#458=CARTESIAN_POINT('Origin',(12.3585715714572,7.25,16.));
#459=CARTESIAN_POINT('',(5.21714314291431,6.,-4.44089209850063E-15));
#460=CARTESIAN_POINT('Origin',(12.3585715714572,7.25,-4.44089209850063E-15));
#461=CARTESIAN_POINT('',(5.21714314291431,6.,16.));
#462=CARTESIAN_POINT('',(5.21714314291431,6.,16.));
#463=CARTESIAN_POINT('Origin',(12.3585715714572,7.25,16.));
#464=CARTESIAN_POINT('Origin',(-4.44089209850063E-15,6.,-2.22044604925031E-15));
#465=CARTESIAN_POINT('',(11.5,6.,-4.44089209850063E-15));
#466=CARTESIAN_POINT('',(-19.5,6.,-16.));
#467=CARTESIAN_POINT('',(-19.5,6.,-16.));
#468=CARTESIAN_POINT('',(-19.5,6.,16.));
#469=CARTESIAN_POINT('',(-19.5,6.,16.));
#470=CARTESIAN_POINT('',(19.5,6.,16.));
#471=CARTESIAN_POINT('Origin',(-19.5,0.,16.));
#472=CARTESIAN_POINT('',(-19.5,0.,16.));
#473=CARTESIAN_POINT('Origin',(12.3585715714572,7.25,-6.66133814775094E-15));
#474=CARTESIAN_POINT('Origin',(-19.5,0.,-16.));
#475=CARTESIAN_POINT('',(-19.5,0.,-16.));
#476=CARTESIAN_POINT('Origin',(19.5,0.,-16.));
#477=CARTESIAN_POINT('',(0.,0.,0.));
#478=CARTESIAN_POINT('',(0.,0.,0.));
#479=CARTESIAN_POINT('',(27.8030250857399,4.52903497040336,-0.999999999999999));
#480=UNCERTAINTY_MEASURE_WITH_UNIT(LENGTH_MEASURE(0.01),#486,
'DISTANCE_ACCURACY_VALUE',
'Maximum model space distance between geometric entities at asserted c
onnectivities');
#481=UNCERTAINTY_MEASURE_WITH_UNIT(LENGTH_MEASURE(0.01),#486,
'DISTANCE_ACCURACY_VALUE',
'Maximum model space distance between geometric entities at asserted c
onnectivities');
#482=UNCERTAINTY_MEASURE_WITH_UNIT(LENGTH_MEASURE(1.E-6),#486,
'DISTANCE_ACCURACY_VALUE',
'Maximum model space distance between geometric entities at asserted c
onnectivities');
#483=(
GEOMETRIC_REPRESENTATION_CONTEXT(3)
GLOBAL_UNCERTAINTY_ASSIGNED_CONTEXT((#480))
GLOBAL_UNIT_ASSIGNED_CONTEXT((#486,#489,#487))
REPRESENTATION_CONTEXT('','3D')
);
#484=(
GEOMETRIC_REPRESENTATION_CONTEXT(3)
GLOBAL_UNCERTAINTY_ASSIGNED_CONTEXT((#481))
GLOBAL_UNIT_ASSIGNED_CONTEXT((#486,#489,#487))
REPRESENTATION_CONTEXT('','3D')
);
#485=(
GEOMETRIC_REPRESENTATION_CONTEXT(3)
GLOBAL_UNCERTAINTY_ASSIGNED_CONTEXT((#482))
GLOBAL_UNIT_ASSIGNED_CONTEXT((#486,#489,#487))
REPRESENTATION_CONTEXT('','3D')
);
#486=(
LENGTH_UNIT()
NAMED_UNIT(*)
SI_UNIT(.MILLI.,.METRE.)
);
#487=(
NAMED_UNIT(*)
SI_UNIT($,.STERADIAN.)
SOLID_ANGLE_UNIT()
);
#488=DIMENSIONAL_EXPONENTS(0.,0.,0.,0.,0.,0.,0.);
#489=(
CONVERSION_BASED_UNIT('degree',#491)
NAMED_UNIT(#488)
PLANE_ANGLE_UNIT()
);
#490=(
NAMED_UNIT(*)
PLANE_ANGLE_UNIT()
SI_UNIT($,.RADIAN.)
);
#491=PLANE_ANGLE_MEASURE_WITH_UNIT(PLANE_ANGLE_MEASURE(0.01745329252),#490);
#492=SHAPE_DEFINITION_REPRESENTATION(#494,#498);
#493=SHAPE_DEFINITION_REPRESENTATION(#495,#499);
#494=PRODUCT_DEFINITION_SHAPE('',$,#501);
#495=PRODUCT_DEFINITION_SHAPE('',$,#502);
#496=PRODUCT_DEFINITION_SHAPE($,$,#17);
#497=PRODUCT_DEFINITION_SHAPE($,$,#18);
#498=SHAPE_REPRESENTATION('',(#281),#483);
#499=SHAPE_REPRESENTATION('',(#313,#314,#315),#484);
#500=PRODUCT_DEFINITION_CONTEXT('part definition',#508,'design');
#501=PRODUCT_DEFINITION('AH408','AH408',#503,#500);
#502=PRODUCT_DEFINITION('AH408','AH408',#504,#500);
#503=PRODUCT_DEFINITION_FORMATION('',$,#510);
#504=PRODUCT_DEFINITION_FORMATION('',$,#511);
#505=PRODUCT_RELATED_PRODUCT_CATEGORY('AH408','AH408',(#510));
#506=PRODUCT_RELATED_PRODUCT_CATEGORY('AH408','AH408',(#511));
#507=APPLICATION_PROTOCOL_DEFINITION('international standard',
'automotive_design',2009,#508);
#508=APPLICATION_CONTEXT(
'Core Data for Automotive Mechanical Design Process');
#509=PRODUCT_CONTEXT('part definition',#508,'mechanical');
#510=PRODUCT('AH408','AH408',$,(#509));
#511=PRODUCT('AH408','AH408',$,(#509));
#512=PRESENTATION_STYLE_ASSIGNMENT((#513));
#513=SURFACE_STYLE_USAGE(.BOTH.,#514);
#514=SURFACE_SIDE_STYLE($,(#515));
#515=SURFACE_STYLE_FILL_AREA(#516);
#516=FILL_AREA_STYLE($,(#517));
#517=FILL_AREA_STYLE_COLOUR($,#518);
#518=COLOUR_RGB('',0.749019607843137,0.749019607843137,0.749019607843137);
ENDSEC;
END-ISO-10303-21;
