ISO-10303-21;
HEADER;
/* Generated by software containing ST-Developer
 * from STEP Tools, Inc. (www.steptools.com) 
 */

FILE_DESCRIPTION(
/* description */ (''),
/* implementation_level */ '2;1');

FILE_NAME(
/* name */ 'D:\\\X2\96F64EF6\X0\\\M6\X2\7CFB5217\X0\\\\X2\914D4EF6\X0\\\
ST0630.stp',
/* time_stamp */ '2025-03-27T10:12:02+08:00',
/* author */ ('1091212-1'),
/* organization */ (''),
/* preprocessor_version */ 'ST-DEVELOPER v15.6',
/* originating_system */ 'Autodesk Inventor 2015',
/* authorisation */ '');

FILE_SCHEMA (('AUTOMOTIVE_DESIGN { 1 0 10303 214 3 1 1 }'));
ENDSEC;

DATA;
#10=MECHANICAL_DESIGN_GEOMETRIC_PRESENTATION_REPRESENTATION('',(#21),#585);
#11=ITEM_DEFINED_TRANSFORMATION($,$,#349,#384);
#12=ITEM_DEFINED_TRANSFORMATION($,$,#349,#385);
#13=(
REPRESENTATION_RELATIONSHIP($,$,#598,#599)
REPRESENTATION_RELATIONSHIP_WITH_TRANSFORMATION(#11)
SHAPE_REPRESENTATION_RELATIONSHIP()
);
#14=(
REPRESENTATION_RELATIONSHIP($,$,#598,#599)
REPRESENTATION_RELATIONSHIP_WITH_TRANSFORMATION(#12)
SHAPE_REPRESENTATION_RELATIONSHIP()
);
#15=CONTEXT_DEPENDENT_SHAPE_REPRESENTATION(#13,#596);
#16=CONTEXT_DEPENDENT_SHAPE_REPRESENTATION(#14,#597);
#17=NEXT_ASSEMBLY_USAGE_OCCURRENCE('ST0630:1',$,$,#602,#601,$);
#18=NEXT_ASSEMBLY_USAGE_OCCURRENCE('ST0630:2',$,$,#602,#601,$);
#19=SHAPE_REPRESENTATION_RELATIONSHIP('SRR','None',#598,#20);
#20=ADVANCED_BREP_SHAPE_REPRESENTATION($,(#22),#583);
#21=STYLED_ITEM('',(#612),#22);
#22=MANIFOLD_SOLID_BREP('\X2\5BE69AD4\X0\1',#348);
#23=CONICAL_SURFACE('',#369,3.97925,45.);
#24=FACE_BOUND('',#72,.T.);
#25=FACE_BOUND('',#74,.T.);
#26=FACE_BOUND('',#76,.T.);
#27=FACE_BOUND('',#78,.T.);
#28=FACE_BOUND('',#80,.T.);
#29=FACE_BOUND('',#82,.T.);
#30=FACE_BOUND('',#84,.T.);
#31=FACE_BOUND('',#86,.T.);
#32=FACE_BOUND('',#87,.T.);
#33=FACE_BOUND('',#88,.T.);
#34=FACE_BOUND('',#90,.T.);
#35=FACE_BOUND('',#94,.T.);
#36=FACE_BOUND('',#97,.T.);
#37=FACE_BOUND('',#99,.T.);
#38=FACE_BOUND('',#100,.T.);
#39=FACE_BOUND('',#101,.T.);
#40=PLANE('',#356);
#41=PLANE('',#374);
#42=PLANE('',#375);
#43=PLANE('',#376);
#44=PLANE('',#377);
#45=PLANE('',#378);
#46=PLANE('',#379);
#47=PLANE('',#380);
#48=PLANE('',#381);
#49=PLANE('',#382);
#50=FACE_OUTER_BOUND('',#68,.T.);
#51=FACE_OUTER_BOUND('',#69,.T.);
#52=FACE_OUTER_BOUND('',#70,.T.);
#53=FACE_OUTER_BOUND('',#71,.T.);
#54=FACE_OUTER_BOUND('',#73,.T.);
#55=FACE_OUTER_BOUND('',#75,.T.);
#56=FACE_OUTER_BOUND('',#77,.T.);
#57=FACE_OUTER_BOUND('',#79,.T.);
#58=FACE_OUTER_BOUND('',#81,.T.);
#59=FACE_OUTER_BOUND('',#83,.T.);
#60=FACE_OUTER_BOUND('',#85,.T.);
#61=FACE_OUTER_BOUND('',#89,.T.);
#62=FACE_OUTER_BOUND('',#91,.T.);
#63=FACE_OUTER_BOUND('',#92,.T.);
#64=FACE_OUTER_BOUND('',#93,.T.);
#65=FACE_OUTER_BOUND('',#95,.T.);
#66=FACE_OUTER_BOUND('',#96,.T.);
#67=FACE_OUTER_BOUND('',#98,.T.);
#68=EDGE_LOOP('',(#241,#242,#243,#244));
#69=EDGE_LOOP('',(#245,#246,#247,#248));
#70=EDGE_LOOP('',(#249,#250,#251,#252,#253,#254,#255,#256,#257,#258));
#71=EDGE_LOOP('',(#259));
#72=EDGE_LOOP('',(#260));
#73=EDGE_LOOP('',(#261));
#74=EDGE_LOOP('',(#262));
#75=EDGE_LOOP('',(#263));
#76=EDGE_LOOP('',(#264));
#77=EDGE_LOOP('',(#265));
#78=EDGE_LOOP('',(#266));
#79=EDGE_LOOP('',(#267));
#80=EDGE_LOOP('',(#268));
#81=EDGE_LOOP('',(#269));
#82=EDGE_LOOP('',(#270));
#83=EDGE_LOOP('',(#271,#272,#273,#274));
#84=EDGE_LOOP('',(#275));
#85=EDGE_LOOP('',(#276,#277,#278,#279));
#86=EDGE_LOOP('',(#280));
#87=EDGE_LOOP('',(#281));
#88=EDGE_LOOP('',(#282));
#89=EDGE_LOOP('',(#283,#284,#285,#286));
#90=EDGE_LOOP('',(#287));
#91=EDGE_LOOP('',(#288,#289,#290,#291,#292,#293,#294,#295,#296,#297));
#92=EDGE_LOOP('',(#298,#299,#300,#301));
#93=EDGE_LOOP('',(#302,#303,#304,#305));
#94=EDGE_LOOP('',(#306));
#95=EDGE_LOOP('',(#307,#308,#309,#310));
#96=EDGE_LOOP('',(#311,#312,#313,#314));
#97=EDGE_LOOP('',(#315));
#98=EDGE_LOOP('',(#316,#317,#318,#319));
#99=EDGE_LOOP('',(#320));
#100=EDGE_LOOP('',(#321));
#101=EDGE_LOOP('',(#322));
#102=LINE('',#492,#128);
#103=LINE('',#495,#129);
#104=LINE('',#501,#130);
#105=LINE('',#504,#131);
#106=LINE('',#507,#132);
#107=LINE('',#509,#133);
#108=LINE('',#510,#134);
#109=LINE('',#512,#135);
#110=LINE('',#514,#136);
#111=LINE('',#516,#137);
#112=LINE('',#518,#138);
#113=LINE('',#519,#139);
#114=LINE('',#550,#140);
#115=LINE('',#551,#141);
#116=LINE('',#554,#142);
#117=LINE('',#555,#143);
#118=LINE('',#557,#144);
#119=LINE('',#560,#145);
#120=LINE('',#562,#146);
#121=LINE('',#564,#147);
#122=LINE('',#566,#148);
#123=LINE('',#567,#149);
#124=LINE('',#569,#150);
#125=LINE('',#570,#151);
#126=LINE('',#573,#152);
#127=LINE('',#575,#153);
#128=VECTOR('',#392,4.);
#129=VECTOR('',#395,4.);
#130=VECTOR('',#400,6.);
#131=VECTOR('',#403,6.);
#132=VECTOR('',#406,21.);
#133=VECTOR('',#407,16.);
#134=VECTOR('',#408,21.);
#135=VECTOR('',#409,29.);
#136=VECTOR('',#410,30.);
#137=VECTOR('',#411,7.99999999999999);
#138=VECTOR('',#412,4.);
#139=VECTOR('',#413,21.);
#140=VECTOR('',#450,21.);
#141=VECTOR('',#451,30.);
#142=VECTOR('',#454,16.);
#143=VECTOR('',#455,30.);
#144=VECTOR('',#458,21.);
#145=VECTOR('',#461,21.);
#146=VECTOR('',#462,4.);
#147=VECTOR('',#463,7.99999999999999);
#148=VECTOR('',#464,30.);
#149=VECTOR('',#465,29.);
#150=VECTOR('',#468,30.);
#151=VECTOR('',#469,30.);
#152=VECTOR('',#474,30.);
#153=VECTOR('',#477,30.);
#154=CIRCLE('',#351,15.);
#155=CIRCLE('',#352,15.);
#156=CIRCLE('',#354,15.);
#157=CIRCLE('',#355,15.);
#158=CIRCLE('',#358,3.);
#159=CIRCLE('',#359,3.);
#160=CIRCLE('',#361,2.4585);
#161=CIRCLE('',#362,2.4585);
#162=CIRCLE('',#364,2.4585);
#163=CIRCLE('',#365,2.4585);
#164=CIRCLE('',#367,2.4585);
#165=CIRCLE('',#368,2.4585);
#166=CIRCLE('',#370,5.5);
#167=CIRCLE('',#372,2.4585);
#168=CIRCLE('',#373,2.4585);
#169=VERTEX_POINT('',#488);
#170=VERTEX_POINT('',#489);
#171=VERTEX_POINT('',#491);
#172=VERTEX_POINT('',#493);
#173=VERTEX_POINT('',#497);
#174=VERTEX_POINT('',#498);
#175=VERTEX_POINT('',#500);
#176=VERTEX_POINT('',#502);
#177=VERTEX_POINT('',#506);
#178=VERTEX_POINT('',#508);
#179=VERTEX_POINT('',#511);
#180=VERTEX_POINT('',#513);
#181=VERTEX_POINT('',#515);
#182=VERTEX_POINT('',#517);
#183=VERTEX_POINT('',#521);
#184=VERTEX_POINT('',#523);
#185=VERTEX_POINT('',#526);
#186=VERTEX_POINT('',#528);
#187=VERTEX_POINT('',#531);
#188=VERTEX_POINT('',#533);
#189=VERTEX_POINT('',#536);
#190=VERTEX_POINT('',#538);
#191=VERTEX_POINT('',#541);
#192=VERTEX_POINT('',#544);
#193=VERTEX_POINT('',#546);
#194=VERTEX_POINT('',#549);
#195=VERTEX_POINT('',#553);
#196=VERTEX_POINT('',#559);
#197=VERTEX_POINT('',#561);
#198=VERTEX_POINT('',#563);
#199=VERTEX_POINT('',#565);
#200=EDGE_CURVE('',#169,#170,#154,.T.);
#201=EDGE_CURVE('',#169,#171,#102,.T.);
#202=EDGE_CURVE('',#172,#171,#155,.T.);
#203=EDGE_CURVE('',#170,#172,#103,.T.);
#204=EDGE_CURVE('',#173,#174,#156,.T.);
#205=EDGE_CURVE('',#173,#175,#104,.T.);
#206=EDGE_CURVE('',#176,#175,#157,.T.);
#207=EDGE_CURVE('',#174,#176,#105,.T.);
#208=EDGE_CURVE('',#176,#177,#106,.T.);
#209=EDGE_CURVE('',#177,#178,#107,.T.);
#210=EDGE_CURVE('',#178,#170,#108,.T.);
#211=EDGE_CURVE('',#179,#172,#109,.T.);
#212=EDGE_CURVE('',#179,#180,#110,.T.);
#213=EDGE_CURVE('',#181,#180,#111,.T.);
#214=EDGE_CURVE('',#181,#182,#112,.T.);
#215=EDGE_CURVE('',#182,#174,#113,.T.);
#216=EDGE_CURVE('',#183,#183,#158,.T.);
#217=EDGE_CURVE('',#184,#184,#159,.T.);
#218=EDGE_CURVE('',#185,#185,#160,.T.);
#219=EDGE_CURVE('',#186,#186,#161,.T.);
#220=EDGE_CURVE('',#187,#187,#162,.T.);
#221=EDGE_CURVE('',#188,#188,#163,.T.);
#222=EDGE_CURVE('',#189,#189,#164,.T.);
#223=EDGE_CURVE('',#190,#190,#165,.T.);
#224=EDGE_CURVE('',#191,#191,#166,.T.);
#225=EDGE_CURVE('',#192,#192,#167,.T.);
#226=EDGE_CURVE('',#193,#193,#168,.T.);
#227=EDGE_CURVE('',#194,#175,#114,.T.);
#228=EDGE_CURVE('',#194,#177,#115,.T.);
#229=EDGE_CURVE('',#195,#194,#116,.T.);
#230=EDGE_CURVE('',#195,#178,#117,.T.);
#231=EDGE_CURVE('',#169,#195,#118,.T.);
#232=EDGE_CURVE('',#173,#196,#119,.T.);
#233=EDGE_CURVE('',#196,#197,#120,.T.);
#234=EDGE_CURVE('',#198,#197,#121,.T.);
#235=EDGE_CURVE('',#198,#199,#122,.T.);
#236=EDGE_CURVE('',#171,#199,#123,.T.);
#237=EDGE_CURVE('',#197,#181,#124,.T.);
#238=EDGE_CURVE('',#196,#182,#125,.T.);
#239=EDGE_CURVE('',#180,#198,#126,.T.);
#240=EDGE_CURVE('',#199,#179,#127,.T.);
#241=ORIENTED_EDGE('',*,*,#200,.F.);
#242=ORIENTED_EDGE('',*,*,#201,.T.);
#243=ORIENTED_EDGE('',*,*,#202,.F.);
#244=ORIENTED_EDGE('',*,*,#203,.F.);
#245=ORIENTED_EDGE('',*,*,#204,.F.);
#246=ORIENTED_EDGE('',*,*,#205,.T.);
#247=ORIENTED_EDGE('',*,*,#206,.F.);
#248=ORIENTED_EDGE('',*,*,#207,.F.);
#249=ORIENTED_EDGE('',*,*,#207,.T.);
#250=ORIENTED_EDGE('',*,*,#208,.T.);
#251=ORIENTED_EDGE('',*,*,#209,.T.);
#252=ORIENTED_EDGE('',*,*,#210,.T.);
#253=ORIENTED_EDGE('',*,*,#203,.T.);
#254=ORIENTED_EDGE('',*,*,#211,.F.);
#255=ORIENTED_EDGE('',*,*,#212,.T.);
#256=ORIENTED_EDGE('',*,*,#213,.F.);
#257=ORIENTED_EDGE('',*,*,#214,.T.);
#258=ORIENTED_EDGE('',*,*,#215,.T.);
#259=ORIENTED_EDGE('',*,*,#216,.F.);
#260=ORIENTED_EDGE('',*,*,#217,.F.);
#261=ORIENTED_EDGE('',*,*,#218,.F.);
#262=ORIENTED_EDGE('',*,*,#219,.F.);
#263=ORIENTED_EDGE('',*,*,#220,.F.);
#264=ORIENTED_EDGE('',*,*,#221,.F.);
#265=ORIENTED_EDGE('',*,*,#222,.T.);
#266=ORIENTED_EDGE('',*,*,#223,.F.);
#267=ORIENTED_EDGE('',*,*,#224,.F.);
#268=ORIENTED_EDGE('',*,*,#222,.F.);
#269=ORIENTED_EDGE('',*,*,#225,.F.);
#270=ORIENTED_EDGE('',*,*,#226,.F.);
#271=ORIENTED_EDGE('',*,*,#206,.T.);
#272=ORIENTED_EDGE('',*,*,#227,.F.);
#273=ORIENTED_EDGE('',*,*,#228,.T.);
#274=ORIENTED_EDGE('',*,*,#208,.F.);
#275=ORIENTED_EDGE('',*,*,#225,.T.);
#276=ORIENTED_EDGE('',*,*,#209,.F.);
#277=ORIENTED_EDGE('',*,*,#228,.F.);
#278=ORIENTED_EDGE('',*,*,#229,.F.);
#279=ORIENTED_EDGE('',*,*,#230,.T.);
#280=ORIENTED_EDGE('',*,*,#216,.T.);
#281=ORIENTED_EDGE('',*,*,#218,.T.);
#282=ORIENTED_EDGE('',*,*,#220,.T.);
#283=ORIENTED_EDGE('',*,*,#200,.T.);
#284=ORIENTED_EDGE('',*,*,#210,.F.);
#285=ORIENTED_EDGE('',*,*,#230,.F.);
#286=ORIENTED_EDGE('',*,*,#231,.F.);
#287=ORIENTED_EDGE('',*,*,#223,.T.);
#288=ORIENTED_EDGE('',*,*,#205,.F.);
#289=ORIENTED_EDGE('',*,*,#232,.T.);
#290=ORIENTED_EDGE('',*,*,#233,.T.);
#291=ORIENTED_EDGE('',*,*,#234,.F.);
#292=ORIENTED_EDGE('',*,*,#235,.T.);
#293=ORIENTED_EDGE('',*,*,#236,.F.);
#294=ORIENTED_EDGE('',*,*,#201,.F.);
#295=ORIENTED_EDGE('',*,*,#231,.T.);
#296=ORIENTED_EDGE('',*,*,#229,.T.);
#297=ORIENTED_EDGE('',*,*,#227,.T.);
#298=ORIENTED_EDGE('',*,*,#237,.F.);
#299=ORIENTED_EDGE('',*,*,#233,.F.);
#300=ORIENTED_EDGE('',*,*,#238,.T.);
#301=ORIENTED_EDGE('',*,*,#214,.F.);
#302=ORIENTED_EDGE('',*,*,#204,.T.);
#303=ORIENTED_EDGE('',*,*,#215,.F.);
#304=ORIENTED_EDGE('',*,*,#238,.F.);
#305=ORIENTED_EDGE('',*,*,#232,.F.);
#306=ORIENTED_EDGE('',*,*,#226,.T.);
#307=ORIENTED_EDGE('',*,*,#237,.T.);
#308=ORIENTED_EDGE('',*,*,#213,.T.);
#309=ORIENTED_EDGE('',*,*,#239,.T.);
#310=ORIENTED_EDGE('',*,*,#234,.T.);
#311=ORIENTED_EDGE('',*,*,#202,.T.);
#312=ORIENTED_EDGE('',*,*,#236,.T.);
#313=ORIENTED_EDGE('',*,*,#240,.T.);
#314=ORIENTED_EDGE('',*,*,#211,.T.);
#315=ORIENTED_EDGE('',*,*,#224,.T.);
#316=ORIENTED_EDGE('',*,*,#235,.F.);
#317=ORIENTED_EDGE('',*,*,#239,.F.);
#318=ORIENTED_EDGE('',*,*,#212,.F.);
#319=ORIENTED_EDGE('',*,*,#240,.F.);
#320=ORIENTED_EDGE('',*,*,#217,.T.);
#321=ORIENTED_EDGE('',*,*,#219,.T.);
#322=ORIENTED_EDGE('',*,*,#221,.T.);
#323=CYLINDRICAL_SURFACE('',#350,15.);
#324=CYLINDRICAL_SURFACE('',#353,15.);
#325=CYLINDRICAL_SURFACE('',#357,3.);
#326=CYLINDRICAL_SURFACE('',#360,2.4585);
#327=CYLINDRICAL_SURFACE('',#363,2.4585);
#328=CYLINDRICAL_SURFACE('',#366,2.4585);
#329=CYLINDRICAL_SURFACE('',#371,2.4585);
#330=ADVANCED_FACE('',(#50),#323,.T.);
#331=ADVANCED_FACE('',(#51),#324,.T.);
#332=ADVANCED_FACE('',(#52),#40,.T.);
#333=ADVANCED_FACE('',(#53,#24),#325,.F.);
#334=ADVANCED_FACE('',(#54,#25),#326,.F.);
#335=ADVANCED_FACE('',(#55,#26),#327,.F.);
#336=ADVANCED_FACE('',(#56,#27),#328,.F.);
#337=ADVANCED_FACE('',(#57,#28),#23,.F.);
#338=ADVANCED_FACE('',(#58,#29),#329,.F.);
#339=ADVANCED_FACE('',(#59,#30),#41,.F.);
#340=ADVANCED_FACE('',(#60,#31,#32,#33),#42,.F.);
#341=ADVANCED_FACE('',(#61,#34),#43,.F.);
#342=ADVANCED_FACE('',(#62),#44,.T.);
#343=ADVANCED_FACE('',(#63),#45,.F.);
#344=ADVANCED_FACE('',(#64,#35),#46,.F.);
#345=ADVANCED_FACE('',(#65),#47,.T.);
#346=ADVANCED_FACE('',(#66,#36),#48,.T.);
#347=ADVANCED_FACE('',(#67,#37,#38,#39),#49,.T.);
#348=CLOSED_SHELL('',(#330,#331,#332,#333,#334,#335,#336,#337,#338,#339,
#340,#341,#342,#343,#344,#345,#346,#347));
#349=AXIS2_PLACEMENT_3D('placement',#486,#386,#387);
#350=AXIS2_PLACEMENT_3D('',#487,#388,#389);
#351=AXIS2_PLACEMENT_3D('',#490,#390,#391);
#352=AXIS2_PLACEMENT_3D('',#494,#393,#394);
#353=AXIS2_PLACEMENT_3D('',#496,#396,#397);
#354=AXIS2_PLACEMENT_3D('',#499,#398,#399);
#355=AXIS2_PLACEMENT_3D('',#503,#401,#402);
#356=AXIS2_PLACEMENT_3D('',#505,#404,#405);
#357=AXIS2_PLACEMENT_3D('',#520,#414,#415);
#358=AXIS2_PLACEMENT_3D('',#522,#416,#417);
#359=AXIS2_PLACEMENT_3D('',#524,#418,#419);
#360=AXIS2_PLACEMENT_3D('',#525,#420,#421);
#361=AXIS2_PLACEMENT_3D('',#527,#422,#423);
#362=AXIS2_PLACEMENT_3D('',#529,#424,#425);
#363=AXIS2_PLACEMENT_3D('',#530,#426,#427);
#364=AXIS2_PLACEMENT_3D('',#532,#428,#429);
#365=AXIS2_PLACEMENT_3D('',#534,#430,#431);
#366=AXIS2_PLACEMENT_3D('',#535,#432,#433);
#367=AXIS2_PLACEMENT_3D('',#537,#434,#435);
#368=AXIS2_PLACEMENT_3D('',#539,#436,#437);
#369=AXIS2_PLACEMENT_3D('',#540,#438,#439);
#370=AXIS2_PLACEMENT_3D('',#542,#440,#441);
#371=AXIS2_PLACEMENT_3D('',#543,#442,#443);
#372=AXIS2_PLACEMENT_3D('',#545,#444,#445);
#373=AXIS2_PLACEMENT_3D('',#547,#446,#447);
#374=AXIS2_PLACEMENT_3D('',#548,#448,#449);
#375=AXIS2_PLACEMENT_3D('',#552,#452,#453);
#376=AXIS2_PLACEMENT_3D('',#556,#456,#457);
#377=AXIS2_PLACEMENT_3D('',#558,#459,#460);
#378=AXIS2_PLACEMENT_3D('',#568,#466,#467);
#379=AXIS2_PLACEMENT_3D('',#571,#470,#471);
#380=AXIS2_PLACEMENT_3D('',#572,#472,#473);
#381=AXIS2_PLACEMENT_3D('',#574,#475,#476);
#382=AXIS2_PLACEMENT_3D('',#576,#478,#479);
#383=AXIS2_PLACEMENT_3D('placement',#577,#480,#481);
#384=AXIS2_PLACEMENT_3D('',#578,#482,#483);
#385=AXIS2_PLACEMENT_3D('',#579,#484,#485);
#386=DIRECTION('axis',(0.,0.,1.));
#387=DIRECTION('refdir',(1.,0.,0.));
#388=DIRECTION('center_axis',(0.,0.,1.));
#389=DIRECTION('ref_axis',(-7.40148683083438E-17,1.,0.));
#390=DIRECTION('center_axis',(0.,0.,1.));
#391=DIRECTION('ref_axis',(-7.40148683083438E-17,1.,0.));
#392=DIRECTION('',(0.,0.,-1.));
#393=DIRECTION('center_axis',(0.,0.,-1.));
#394=DIRECTION('ref_axis',(-7.40148683083438E-17,1.,0.));
#395=DIRECTION('',(0.,0.,-1.));
#396=DIRECTION('center_axis',(0.,0.,1.));
#397=DIRECTION('ref_axis',(-7.40148683083438E-17,1.,0.));
#398=DIRECTION('center_axis',(0.,0.,1.));
#399=DIRECTION('ref_axis',(-7.40148683083438E-17,1.,0.));
#400=DIRECTION('',(0.,0.,-1.));
#401=DIRECTION('center_axis',(-1.21742854973199E-16,-3.22774258327992E-32,
-1.));
#402=DIRECTION('ref_axis',(-7.40148683083438E-17,1.,0.));
#403=DIRECTION('',(0.,0.,-1.));
#404=DIRECTION('center_axis',(9.25185853854297E-17,-1.,0.));
#405=DIRECTION('ref_axis',(1.,1.77635683940025E-16,0.));
#406=DIRECTION('',(1.,9.25185853854297E-17,-1.21742854973199E-16));
#407=DIRECTION('',(0.,0.,-1.));
#408=DIRECTION('',(-1.,-9.25185853854297E-17,0.));
#409=DIRECTION('',(-1.,-9.25185853854297E-17,0.));
#410=DIRECTION('',(0.,0.,1.));
#411=DIRECTION('',(1.,9.25185853854297E-17,0.));
#412=DIRECTION('',(0.,0.,-1.));
#413=DIRECTION('',(-1.,-9.25185853854297E-17,0.));
#414=DIRECTION('center_axis',(1.,1.48029736616688E-16,0.));
#415=DIRECTION('ref_axis',(0.,0.,-1.));
#416=DIRECTION('center_axis',(1.,2.65127886477649E-16,0.));
#417=DIRECTION('ref_axis',(0.,0.,-1.));
#418=DIRECTION('center_axis',(-1.,-1.48029736616688E-16,0.));
#419=DIRECTION('ref_axis',(0.,0.,-1.));
#420=DIRECTION('center_axis',(1.,1.48029736616688E-16,0.));
#421=DIRECTION('ref_axis',(0.,0.,-1.));
#422=DIRECTION('center_axis',(1.,2.65127886477649E-16,0.));
#423=DIRECTION('ref_axis',(0.,0.,-1.));
#424=DIRECTION('center_axis',(-1.,-1.48029736616688E-16,0.));
#425=DIRECTION('ref_axis',(0.,0.,-1.));
#426=DIRECTION('center_axis',(1.,1.48029736616688E-16,0.));
#427=DIRECTION('ref_axis',(0.,0.,-1.));
#428=DIRECTION('center_axis',(1.,2.65127886477649E-16,0.));
#429=DIRECTION('ref_axis',(0.,0.,-1.));
#430=DIRECTION('center_axis',(-1.,-1.48029736616688E-16,0.));
#431=DIRECTION('ref_axis',(0.,0.,-1.));
#432=DIRECTION('center_axis',(0.,0.,-1.));
#433=DIRECTION('ref_axis',(-1.,0.,0.));
#434=DIRECTION('center_axis',(0.,0.,-1.));
#435=DIRECTION('ref_axis',(-1.,0.,0.));
#436=DIRECTION('center_axis',(0.,0.,-1.));
#437=DIRECTION('ref_axis',(-1.,0.,0.));
#438=DIRECTION('center_axis',(0.,0.,-1.));
#439=DIRECTION('ref_axis',(-1.,0.,0.));
#440=DIRECTION('center_axis',(0.,0.,1.));
#441=DIRECTION('ref_axis',(-1.,0.,0.));
#442=DIRECTION('center_axis',(0.,0.,-1.));
#443=DIRECTION('ref_axis',(-1.,0.,0.));
#444=DIRECTION('center_axis',(1.21742854973199E-16,3.22774258327992E-32,
1.));
#445=DIRECTION('ref_axis',(-1.,0.,0.));
#446=DIRECTION('center_axis',(0.,0.,-1.));
#447=DIRECTION('ref_axis',(-1.,0.,0.));
#448=DIRECTION('center_axis',(1.21742854973199E-16,3.22774258327992E-32,
1.));
#449=DIRECTION('ref_axis',(-1.,-1.77635683940025E-16,8.88178419700125E-17));
#450=DIRECTION('',(-1.,-2.31296463463574E-16,1.21742854973199E-16));
#451=DIRECTION('',(2.65127886477649E-16,-1.,0.));
#452=DIRECTION('center_axis',(1.,2.65127886477649E-16,0.));
#453=DIRECTION('ref_axis',(0.,0.,1.));
#454=DIRECTION('',(0.,0.,1.));
#455=DIRECTION('',(2.65127886477649E-16,-1.,0.));
#456=DIRECTION('center_axis',(0.,0.,-1.));
#457=DIRECTION('ref_axis',(1.,1.77635683940025E-16,0.));
#458=DIRECTION('',(1.,2.31296463463574E-16,0.));
#459=DIRECTION('center_axis',(-2.31296463463574E-16,1.,0.));
#460=DIRECTION('ref_axis',(-1.,-1.77635683940025E-16,0.));
#461=DIRECTION('',(1.,2.31296463463574E-16,0.));
#462=DIRECTION('',(0.,0.,1.));
#463=DIRECTION('',(-1.,-2.31296463463574E-16,0.));
#464=DIRECTION('',(0.,0.,-1.));
#465=DIRECTION('',(1.,2.31296463463574E-16,0.));
#466=DIRECTION('center_axis',(1.,2.65127886477649E-16,0.));
#467=DIRECTION('ref_axis',(0.,0.,1.));
#468=DIRECTION('',(2.65127886477649E-16,-1.,0.));
#469=DIRECTION('',(2.65127886477649E-16,-1.,0.));
#470=DIRECTION('center_axis',(0.,0.,-1.));
#471=DIRECTION('ref_axis',(1.,1.77635683940025E-16,0.));
#472=DIRECTION('center_axis',(0.,0.,1.));
#473=DIRECTION('ref_axis',(1.,0.,0.));
#474=DIRECTION('',(-1.48029736616688E-16,1.,0.));
#475=DIRECTION('center_axis',(0.,0.,-1.));
#476=DIRECTION('ref_axis',(-1.,0.,0.));
#477=DIRECTION('',(1.48029736616688E-16,-1.,0.));
#478=DIRECTION('center_axis',(1.,1.48029736616688E-16,0.));
#479=DIRECTION('ref_axis',(0.,1.,0.));
#480=DIRECTION('axis',(0.,0.,1.));
#481=DIRECTION('refdir',(1.,0.,0.));
#482=DIRECTION('',(-3.38260235793748E-15,-1.7248620963705E-14,1.));
#483=DIRECTION('',(1.,4.59799299329376E-15,3.38260235793756E-15));
#484=DIRECTION('',(4.04695021539654E-15,1.7248620963705E-14,-1.));
#485=DIRECTION('',(-0.873044008845926,-0.487641424222999,-1.19443077322735E-14));
#486=CARTESIAN_POINT('',(0.,0.,0.));
#487=CARTESIAN_POINT('Origin',(-5.,0.,-15.));
#488=CARTESIAN_POINT('',(-5.,15.,-11.));
#489=CARTESIAN_POINT('',(-5.,-15.,-11.));
#490=CARTESIAN_POINT('Origin',(-5.,0.,-11.));
#491=CARTESIAN_POINT('',(-5.,15.,-15.));
#492=CARTESIAN_POINT('',(-5.,15.,-15.));
#493=CARTESIAN_POINT('',(-5.,-15.,-15.));
#494=CARTESIAN_POINT('Origin',(-5.,0.,-15.));
#495=CARTESIAN_POINT('',(-5.,-15.,-15.));
#496=CARTESIAN_POINT('Origin',(-5.,0.,-15.));
#497=CARTESIAN_POINT('',(-5.,15.,11.));
#498=CARTESIAN_POINT('',(-5.,-15.,11.));
#499=CARTESIAN_POINT('Origin',(-5.,0.,11.));
#500=CARTESIAN_POINT('',(-5.,15.,5.));
#501=CARTESIAN_POINT('',(-5.,15.,-15.));
#502=CARTESIAN_POINT('',(-5.,-15.,5.));
#503=CARTESIAN_POINT('Origin',(-5.,0.,5.));
#504=CARTESIAN_POINT('',(-5.,-15.,-15.));
#505=CARTESIAN_POINT('Origin',(-24.,-15.,0.));
#506=CARTESIAN_POINT('',(16.,-15.,5.));
#507=CARTESIAN_POINT('',(-3.99999999999999,-15.,5.));
#508=CARTESIAN_POINT('',(16.,-15.,-11.));
#509=CARTESIAN_POINT('',(16.,-15.,-5.5));
#510=CARTESIAN_POINT('',(-31.3582303832837,-15.,-11.));
#511=CARTESIAN_POINT('',(24.,-15.,-15.));
#512=CARTESIAN_POINT('',(24.,-15.,-15.));
#513=CARTESIAN_POINT('',(24.,-15.,15.));
#514=CARTESIAN_POINT('',(24.,-15.,0.));
#515=CARTESIAN_POINT('',(16.,-15.,15.));
#516=CARTESIAN_POINT('',(24.,-15.,15.));
#517=CARTESIAN_POINT('',(16.,-15.,11.));
#518=CARTESIAN_POINT('',(16.,-15.,5.5));
#519=CARTESIAN_POINT('',(-26.5586722210361,-15.,11.));
#520=CARTESIAN_POINT('Origin',(-40.0624695121879,-5.04225839040312E-15,
0.));
#521=CARTESIAN_POINT('',(16.,2.88926016582292E-15,3.));
#522=CARTESIAN_POINT('Origin',(16.,3.25665420556713E-15,0.));
#523=CARTESIAN_POINT('',(24.,4.44089209850063E-15,-3.));
#524=CARTESIAN_POINT('Origin',(24.,4.44089209850063E-15,0.));
#525=CARTESIAN_POINT('Origin',(-40.0624695121879,10.,0.));
#526=CARTESIAN_POINT('',(16.,10.,2.4585));
#527=CARTESIAN_POINT('Origin',(16.,10.,0.));
#528=CARTESIAN_POINT('',(24.,10.,-2.4585));
#529=CARTESIAN_POINT('Origin',(24.,10.,0.));
#530=CARTESIAN_POINT('Origin',(-40.0624695121879,-10.,0.));
#531=CARTESIAN_POINT('',(16.,-10.,2.4585));
#532=CARTESIAN_POINT('Origin',(16.,-10.,0.));
#533=CARTESIAN_POINT('',(24.,-10.,-2.4585));
#534=CARTESIAN_POINT('Origin',(24.,-9.99999999999999,0.));
#535=CARTESIAN_POINT('Origin',(-5.,0.,49.0624695121879));
#536=CARTESIAN_POINT('',(-7.4585,0.,-11.9585));
#537=CARTESIAN_POINT('Origin',(-5.,0.,-11.9585));
#538=CARTESIAN_POINT('',(-2.5415,-3.01079415570377E-16,-11.));
#539=CARTESIAN_POINT('Origin',(-5.,0.,-11.));
#540=CARTESIAN_POINT('Origin',(-5.,0.,-13.47925));
#541=CARTESIAN_POINT('',(-10.5,0.,-15.));
#542=CARTESIAN_POINT('Origin',(-5.,0.,-15.));
#543=CARTESIAN_POINT('Origin',(-5.,0.,49.0624695121879));
#544=CARTESIAN_POINT('',(-2.5415,3.01079415570377E-16,5.));
#545=CARTESIAN_POINT('Origin',(-5.,0.,5.));
#546=CARTESIAN_POINT('',(-2.5415,-3.01079415570377E-16,11.));
#547=CARTESIAN_POINT('Origin',(-5.,0.,11.));
#548=CARTESIAN_POINT('Origin',(16.,15.,5.));
#549=CARTESIAN_POINT('',(16.,15.,5.));
#550=CARTESIAN_POINT('',(20.,15.,5.));
#551=CARTESIAN_POINT('',(16.,15.,5.));
#552=CARTESIAN_POINT('Origin',(16.,15.,-11.));
#553=CARTESIAN_POINT('',(16.,15.,-11.));
#554=CARTESIAN_POINT('',(16.,15.,-5.5));
#555=CARTESIAN_POINT('',(16.,15.,-11.));
#556=CARTESIAN_POINT('Origin',(-38.7164607665673,15.,-11.));
#557=CARTESIAN_POINT('',(-7.35823038328365,15.,-11.));
#558=CARTESIAN_POINT('Origin',(24.,15.,0.));
#559=CARTESIAN_POINT('',(16.,15.,11.));
#560=CARTESIAN_POINT('',(-2.5586722210361,15.,11.));
#561=CARTESIAN_POINT('',(16.,15.,15.));
#562=CARTESIAN_POINT('',(16.,15.,5.5));
#563=CARTESIAN_POINT('',(24.,15.,15.));
#564=CARTESIAN_POINT('',(-24.,15.,15.));
#565=CARTESIAN_POINT('',(24.,15.,-15.));
#566=CARTESIAN_POINT('',(24.,15.,0.));
#567=CARTESIAN_POINT('',(-24.,15.,-15.));
#568=CARTESIAN_POINT('Origin',(16.,15.,11.));
#569=CARTESIAN_POINT('',(16.,7.50000000000001,15.));
#570=CARTESIAN_POINT('',(16.,15.,11.));
#571=CARTESIAN_POINT('Origin',(-29.1173444420722,15.,11.));
#572=CARTESIAN_POINT('Origin',(8.88178419700125E-15,2.22044604925031E-15,
15.));
#573=CARTESIAN_POINT('',(24.,15.,15.));
#574=CARTESIAN_POINT('Origin',(8.88178419700125E-15,2.22044604925031E-15,
-15.));
#575=CARTESIAN_POINT('',(24.,15.,-15.));
#576=CARTESIAN_POINT('Origin',(24.,-15.,0.));
#577=CARTESIAN_POINT('',(0.,0.,0.));
#578=CARTESIAN_POINT('',(-31.9939062351589,30.9466598104215,23.0069033529327));
#579=CARTESIAN_POINT('',(-41.3591262793884,28.5084526893065,23.0069033529327));
#580=UNCERTAINTY_MEASURE_WITH_UNIT(LENGTH_MEASURE(0.01),#586,
'DISTANCE_ACCURACY_VALUE',
'Maximum model space distance between geometric entities at asserted c
onnectivities');
#581=UNCERTAINTY_MEASURE_WITH_UNIT(LENGTH_MEASURE(0.01),#586,
'DISTANCE_ACCURACY_VALUE',
'Maximum model space distance between geometric entities at asserted c
onnectivities');
#582=UNCERTAINTY_MEASURE_WITH_UNIT(LENGTH_MEASURE(1.E-6),#586,
'DISTANCE_ACCURACY_VALUE',
'Maximum model space distance between geometric entities at asserted c
onnectivities');
#583=(
GEOMETRIC_REPRESENTATION_CONTEXT(3)
GLOBAL_UNCERTAINTY_ASSIGNED_CONTEXT((#580))
GLOBAL_UNIT_ASSIGNED_CONTEXT((#586,#589,#587))
REPRESENTATION_CONTEXT('','3D')
);
#584=(
GEOMETRIC_REPRESENTATION_CONTEXT(3)
GLOBAL_UNCERTAINTY_ASSIGNED_CONTEXT((#581))
GLOBAL_UNIT_ASSIGNED_CONTEXT((#586,#589,#587))
REPRESENTATION_CONTEXT('','3D')
);
#585=(
GEOMETRIC_REPRESENTATION_CONTEXT(3)
GLOBAL_UNCERTAINTY_ASSIGNED_CONTEXT((#582))
GLOBAL_UNIT_ASSIGNED_CONTEXT((#586,#589,#587))
REPRESENTATION_CONTEXT('','3D')
);
#586=(
LENGTH_UNIT()
NAMED_UNIT(*)
SI_UNIT(.MILLI.,.METRE.)
);
#587=(
NAMED_UNIT(*)
SI_UNIT($,.STERADIAN.)
SOLID_ANGLE_UNIT()
);
#588=DIMENSIONAL_EXPONENTS(0.,0.,0.,0.,0.,0.,0.);
#589=(
CONVERSION_BASED_UNIT('degree',#591)
NAMED_UNIT(#588)
PLANE_ANGLE_UNIT()
);
#590=(
NAMED_UNIT(*)
PLANE_ANGLE_UNIT()
SI_UNIT($,.RADIAN.)
);
#591=PLANE_ANGLE_MEASURE_WITH_UNIT(PLANE_ANGLE_MEASURE(0.01745329252),#590);
#592=SHAPE_DEFINITION_REPRESENTATION(#594,#598);
#593=SHAPE_DEFINITION_REPRESENTATION(#595,#599);
#594=PRODUCT_DEFINITION_SHAPE('',$,#601);
#595=PRODUCT_DEFINITION_SHAPE('',$,#602);
#596=PRODUCT_DEFINITION_SHAPE($,$,#17);
#597=PRODUCT_DEFINITION_SHAPE($,$,#18);
#598=SHAPE_REPRESENTATION('',(#349),#583);
#599=SHAPE_REPRESENTATION('',(#383,#384,#385),#584);
#600=PRODUCT_DEFINITION_CONTEXT('part definition',#608,'design');
#601=PRODUCT_DEFINITION('ST0630','ST0630',#603,#600);
#602=PRODUCT_DEFINITION('ST0630','ST0630',#604,#600);
#603=PRODUCT_DEFINITION_FORMATION('',$,#610);
#604=PRODUCT_DEFINITION_FORMATION('',$,#611);
#605=PRODUCT_RELATED_PRODUCT_CATEGORY('ST0630','ST0630',(#610));
#606=PRODUCT_RELATED_PRODUCT_CATEGORY('ST0630','ST0630',(#611));
#607=APPLICATION_PROTOCOL_DEFINITION('international standard',
'automotive_design',2009,#608);
#608=APPLICATION_CONTEXT(
'Core Data for Automotive Mechanical Design Process');
#609=PRODUCT_CONTEXT('part definition',#608,'mechanical');
#610=PRODUCT('ST0630','ST0630',$,(#609));
#611=PRODUCT('ST0630','ST0630',$,(#609));
#612=PRESENTATION_STYLE_ASSIGNMENT((#613));
#613=SURFACE_STYLE_USAGE(.BOTH.,#614);
#614=SURFACE_SIDE_STYLE($,(#615));
#615=SURFACE_STYLE_FILL_AREA(#616);
#616=FILL_AREA_STYLE($,(#617));
#617=FILL_AREA_STYLE_COLOUR($,#618);
#618=COLOUR_RGB('',0.749019607843137,0.749019607843137,0.749019607843137);
ENDSEC;
END-ISO-10303-21;
