ISO-10303-21;
HEADER;
/* Generated by software containing ST-Developer
 * from STEP Tools, Inc. (www.steptools.com) 
 */

FILE_DESCRIPTION(
/* description */ (''),
/* implementation_level */ '2;1');

FILE_NAME(
/* name */ 'D:\\\X2\96F64EF6\X0\\\M6\X2\7CFB5217\X0\\\\X2\914D4EF6\X0\\\
DSP\\DSP8080-6.stp',
/* time_stamp */ '2025-03-26T16:51:25+08:00',
/* author */ ('1091212-1'),
/* organization */ (''),
/* preprocessor_version */ 'ST-DEVELOPER v15.6',
/* originating_system */ 'Autodesk Inventor 2015',
/* authorisation */ '');

FILE_SCHEMA (('AUTOMOTIVE_DESIGN { 1 0 10303 214 3 1 1 }'));
ENDSEC;

DATA;
#10=MECHANICAL_DESIGN_GEOMETRIC_PRESENTATION_REPRESENTATION('',(#13),#373);
#11=SHAPE_REPRESENTATION_RELATIONSHIP('SRR','None',#382,#12);
#12=ADVANCED_BREP_SHAPE_REPRESENTATION($,(#14),#372);
#13=STYLED_ITEM('',(#391),#14);
#14=MANIFOLD_SOLID_BREP('\X2\5BE69AD4\X0\1',#229);
#15=LINE('',#335,#33);
#16=LINE('',#337,#34);
#17=LINE('',#339,#35);
#18=LINE('',#340,#36);
#19=LINE('',#343,#37);
#20=LINE('',#345,#38);
#21=LINE('',#346,#39);
#22=LINE('',#349,#40);
#23=LINE('',#351,#41);
#24=LINE('',#352,#42);
#25=LINE('',#355,#43);
#26=LINE('',#357,#44);
#27=LINE('',#358,#45);
#28=LINE('',#361,#46);
#29=LINE('',#363,#47);
#30=LINE('',#364,#48);
#31=LINE('',#366,#49);
#32=LINE('',#367,#50);
#33=VECTOR('',#279,25.);
#34=VECTOR('',#280,3.2);
#35=VECTOR('',#281,25.);
#36=VECTOR('',#282,3.2);
#37=VECTOR('',#285,55.);
#38=VECTOR('',#286,55.);
#39=VECTOR('',#287,3.2);
#40=VECTOR('',#290,55.);
#41=VECTOR('',#291,55.);
#42=VECTOR('',#292,3.2);
#43=VECTOR('',#295,25.);
#44=VECTOR('',#296,25.);
#45=VECTOR('',#297,3.2);
#46=VECTOR('',#300,80.);
#47=VECTOR('',#301,80.);
#48=VECTOR('',#302,3.2);
#49=VECTOR('',#305,80.);
#50=VECTOR('',#306,80.);
#51=PLANE('',#243);
#52=PLANE('',#244);
#53=PLANE('',#245);
#54=PLANE('',#246);
#55=PLANE('',#247);
#56=PLANE('',#248);
#57=PLANE('',#249);
#58=PLANE('',#250);
#59=FACE_BOUND('',#84,.T.);
#60=FACE_BOUND('',#86,.T.);
#61=FACE_BOUND('',#88,.T.);
#62=FACE_BOUND('',#90,.T.);
#63=FACE_BOUND('',#98,.T.);
#64=FACE_BOUND('',#99,.T.);
#65=FACE_BOUND('',#100,.T.);
#66=FACE_BOUND('',#101,.T.);
#67=FACE_BOUND('',#103,.T.);
#68=FACE_BOUND('',#104,.T.);
#69=FACE_BOUND('',#105,.T.);
#70=FACE_BOUND('',#106,.T.);
#71=FACE_OUTER_BOUND('',#83,.T.);
#72=FACE_OUTER_BOUND('',#85,.T.);
#73=FACE_OUTER_BOUND('',#87,.T.);
#74=FACE_OUTER_BOUND('',#89,.T.);
#75=FACE_OUTER_BOUND('',#91,.T.);
#76=FACE_OUTER_BOUND('',#92,.T.);
#77=FACE_OUTER_BOUND('',#93,.T.);
#78=FACE_OUTER_BOUND('',#94,.T.);
#79=FACE_OUTER_BOUND('',#95,.T.);
#80=FACE_OUTER_BOUND('',#96,.T.);
#81=FACE_OUTER_BOUND('',#97,.T.);
#82=FACE_OUTER_BOUND('',#102,.T.);
#83=EDGE_LOOP('',(#161));
#84=EDGE_LOOP('',(#162));
#85=EDGE_LOOP('',(#163));
#86=EDGE_LOOP('',(#164));
#87=EDGE_LOOP('',(#165));
#88=EDGE_LOOP('',(#166));
#89=EDGE_LOOP('',(#167));
#90=EDGE_LOOP('',(#168));
#91=EDGE_LOOP('',(#169,#170,#171,#172));
#92=EDGE_LOOP('',(#173,#174,#175,#176));
#93=EDGE_LOOP('',(#177,#178,#179,#180));
#94=EDGE_LOOP('',(#181,#182,#183,#184));
#95=EDGE_LOOP('',(#185,#186,#187,#188));
#96=EDGE_LOOP('',(#189,#190,#191,#192));
#97=EDGE_LOOP('',(#193,#194,#195,#196,#197,#198));
#98=EDGE_LOOP('',(#199));
#99=EDGE_LOOP('',(#200));
#100=EDGE_LOOP('',(#201));
#101=EDGE_LOOP('',(#202));
#102=EDGE_LOOP('',(#203,#204,#205,#206,#207,#208));
#103=EDGE_LOOP('',(#209));
#104=EDGE_LOOP('',(#210));
#105=EDGE_LOOP('',(#211));
#106=EDGE_LOOP('',(#212));
#107=CIRCLE('',#232,3.5);
#108=CIRCLE('',#233,3.5);
#109=CIRCLE('',#235,3.5);
#110=CIRCLE('',#236,3.5);
#111=CIRCLE('',#238,3.5);
#112=CIRCLE('',#239,3.5);
#113=CIRCLE('',#241,3.5);
#114=CIRCLE('',#242,3.5);
#115=VERTEX_POINT('',#313);
#116=VERTEX_POINT('',#315);
#117=VERTEX_POINT('',#318);
#118=VERTEX_POINT('',#320);
#119=VERTEX_POINT('',#323);
#120=VERTEX_POINT('',#325);
#121=VERTEX_POINT('',#328);
#122=VERTEX_POINT('',#330);
#123=VERTEX_POINT('',#333);
#124=VERTEX_POINT('',#334);
#125=VERTEX_POINT('',#336);
#126=VERTEX_POINT('',#338);
#127=VERTEX_POINT('',#342);
#128=VERTEX_POINT('',#344);
#129=VERTEX_POINT('',#348);
#130=VERTEX_POINT('',#350);
#131=VERTEX_POINT('',#354);
#132=VERTEX_POINT('',#356);
#133=VERTEX_POINT('',#360);
#134=VERTEX_POINT('',#362);
#135=EDGE_CURVE('',#115,#115,#107,.T.);
#136=EDGE_CURVE('',#116,#116,#108,.T.);
#137=EDGE_CURVE('',#117,#117,#109,.T.);
#138=EDGE_CURVE('',#118,#118,#110,.T.);
#139=EDGE_CURVE('',#119,#119,#111,.T.);
#140=EDGE_CURVE('',#120,#120,#112,.T.);
#141=EDGE_CURVE('',#121,#121,#113,.T.);
#142=EDGE_CURVE('',#122,#122,#114,.T.);
#143=EDGE_CURVE('',#123,#124,#15,.T.);
#144=EDGE_CURVE('',#123,#125,#16,.T.);
#145=EDGE_CURVE('',#126,#125,#17,.T.);
#146=EDGE_CURVE('',#124,#126,#18,.T.);
#147=EDGE_CURVE('',#124,#127,#19,.T.);
#148=EDGE_CURVE('',#128,#126,#20,.T.);
#149=EDGE_CURVE('',#127,#128,#21,.T.);
#150=EDGE_CURVE('',#127,#129,#22,.T.);
#151=EDGE_CURVE('',#130,#128,#23,.T.);
#152=EDGE_CURVE('',#129,#130,#24,.T.);
#153=EDGE_CURVE('',#129,#131,#25,.T.);
#154=EDGE_CURVE('',#132,#130,#26,.T.);
#155=EDGE_CURVE('',#131,#132,#27,.T.);
#156=EDGE_CURVE('',#131,#133,#28,.T.);
#157=EDGE_CURVE('',#134,#132,#29,.T.);
#158=EDGE_CURVE('',#133,#134,#30,.T.);
#159=EDGE_CURVE('',#133,#123,#31,.T.);
#160=EDGE_CURVE('',#125,#134,#32,.T.);
#161=ORIENTED_EDGE('',*,*,#135,.F.);
#162=ORIENTED_EDGE('',*,*,#136,.F.);
#163=ORIENTED_EDGE('',*,*,#137,.F.);
#164=ORIENTED_EDGE('',*,*,#138,.F.);
#165=ORIENTED_EDGE('',*,*,#139,.F.);
#166=ORIENTED_EDGE('',*,*,#140,.F.);
#167=ORIENTED_EDGE('',*,*,#141,.F.);
#168=ORIENTED_EDGE('',*,*,#142,.F.);
#169=ORIENTED_EDGE('',*,*,#143,.F.);
#170=ORIENTED_EDGE('',*,*,#144,.T.);
#171=ORIENTED_EDGE('',*,*,#145,.F.);
#172=ORIENTED_EDGE('',*,*,#146,.F.);
#173=ORIENTED_EDGE('',*,*,#147,.F.);
#174=ORIENTED_EDGE('',*,*,#146,.T.);
#175=ORIENTED_EDGE('',*,*,#148,.F.);
#176=ORIENTED_EDGE('',*,*,#149,.F.);
#177=ORIENTED_EDGE('',*,*,#150,.F.);
#178=ORIENTED_EDGE('',*,*,#149,.T.);
#179=ORIENTED_EDGE('',*,*,#151,.F.);
#180=ORIENTED_EDGE('',*,*,#152,.F.);
#181=ORIENTED_EDGE('',*,*,#153,.F.);
#182=ORIENTED_EDGE('',*,*,#152,.T.);
#183=ORIENTED_EDGE('',*,*,#154,.F.);
#184=ORIENTED_EDGE('',*,*,#155,.F.);
#185=ORIENTED_EDGE('',*,*,#156,.F.);
#186=ORIENTED_EDGE('',*,*,#155,.T.);
#187=ORIENTED_EDGE('',*,*,#157,.F.);
#188=ORIENTED_EDGE('',*,*,#158,.F.);
#189=ORIENTED_EDGE('',*,*,#159,.F.);
#190=ORIENTED_EDGE('',*,*,#158,.T.);
#191=ORIENTED_EDGE('',*,*,#160,.F.);
#192=ORIENTED_EDGE('',*,*,#144,.F.);
#193=ORIENTED_EDGE('',*,*,#159,.T.);
#194=ORIENTED_EDGE('',*,*,#143,.T.);
#195=ORIENTED_EDGE('',*,*,#147,.T.);
#196=ORIENTED_EDGE('',*,*,#150,.T.);
#197=ORIENTED_EDGE('',*,*,#153,.T.);
#198=ORIENTED_EDGE('',*,*,#156,.T.);
#199=ORIENTED_EDGE('',*,*,#136,.T.);
#200=ORIENTED_EDGE('',*,*,#138,.T.);
#201=ORIENTED_EDGE('',*,*,#140,.T.);
#202=ORIENTED_EDGE('',*,*,#142,.T.);
#203=ORIENTED_EDGE('',*,*,#160,.T.);
#204=ORIENTED_EDGE('',*,*,#157,.T.);
#205=ORIENTED_EDGE('',*,*,#154,.T.);
#206=ORIENTED_EDGE('',*,*,#151,.T.);
#207=ORIENTED_EDGE('',*,*,#148,.T.);
#208=ORIENTED_EDGE('',*,*,#145,.T.);
#209=ORIENTED_EDGE('',*,*,#135,.T.);
#210=ORIENTED_EDGE('',*,*,#137,.T.);
#211=ORIENTED_EDGE('',*,*,#139,.T.);
#212=ORIENTED_EDGE('',*,*,#141,.T.);
#213=CYLINDRICAL_SURFACE('',#231,3.5);
#214=CYLINDRICAL_SURFACE('',#234,3.5);
#215=CYLINDRICAL_SURFACE('',#237,3.5);
#216=CYLINDRICAL_SURFACE('',#240,3.5);
#217=ADVANCED_FACE('',(#71,#59),#213,.F.);
#218=ADVANCED_FACE('',(#72,#60),#214,.F.);
#219=ADVANCED_FACE('',(#73,#61),#215,.F.);
#220=ADVANCED_FACE('',(#74,#62),#216,.F.);
#221=ADVANCED_FACE('',(#75),#51,.T.);
#222=ADVANCED_FACE('',(#76),#52,.T.);
#223=ADVANCED_FACE('',(#77),#53,.T.);
#224=ADVANCED_FACE('',(#78),#54,.T.);
#225=ADVANCED_FACE('',(#79),#55,.T.);
#226=ADVANCED_FACE('',(#80),#56,.T.);
#227=ADVANCED_FACE('',(#81,#63,#64,#65,#66),#57,.F.);
#228=ADVANCED_FACE('',(#82,#67,#68,#69,#70),#58,.T.);
#229=CLOSED_SHELL('',(#217,#218,#219,#220,#221,#222,#223,#224,#225,#226,
#227,#228));
#230=AXIS2_PLACEMENT_3D('placement',#311,#251,#252);
#231=AXIS2_PLACEMENT_3D('',#312,#253,#254);
#232=AXIS2_PLACEMENT_3D('',#314,#255,#256);
#233=AXIS2_PLACEMENT_3D('',#316,#257,#258);
#234=AXIS2_PLACEMENT_3D('',#317,#259,#260);
#235=AXIS2_PLACEMENT_3D('',#319,#261,#262);
#236=AXIS2_PLACEMENT_3D('',#321,#263,#264);
#237=AXIS2_PLACEMENT_3D('',#322,#265,#266);
#238=AXIS2_PLACEMENT_3D('',#324,#267,#268);
#239=AXIS2_PLACEMENT_3D('',#326,#269,#270);
#240=AXIS2_PLACEMENT_3D('',#327,#271,#272);
#241=AXIS2_PLACEMENT_3D('',#329,#273,#274);
#242=AXIS2_PLACEMENT_3D('',#331,#275,#276);
#243=AXIS2_PLACEMENT_3D('',#332,#277,#278);
#244=AXIS2_PLACEMENT_3D('',#341,#283,#284);
#245=AXIS2_PLACEMENT_3D('',#347,#288,#289);
#246=AXIS2_PLACEMENT_3D('',#353,#293,#294);
#247=AXIS2_PLACEMENT_3D('',#359,#298,#299);
#248=AXIS2_PLACEMENT_3D('',#365,#303,#304);
#249=AXIS2_PLACEMENT_3D('',#368,#307,#308);
#250=AXIS2_PLACEMENT_3D('',#369,#309,#310);
#251=DIRECTION('axis',(0.,0.,1.));
#252=DIRECTION('refdir',(1.,0.,0.));
#253=DIRECTION('center_axis',(0.,0.,1.));
#254=DIRECTION('ref_axis',(-1.,0.,0.));
#255=DIRECTION('center_axis',(0.,0.,-1.));
#256=DIRECTION('ref_axis',(-1.,0.,0.));
#257=DIRECTION('center_axis',(0.,0.,1.));
#258=DIRECTION('ref_axis',(-1.,0.,0.));
#259=DIRECTION('center_axis',(0.,0.,1.));
#260=DIRECTION('ref_axis',(-1.,0.,0.));
#261=DIRECTION('center_axis',(0.,0.,-1.));
#262=DIRECTION('ref_axis',(-1.,0.,0.));
#263=DIRECTION('center_axis',(0.,0.,1.));
#264=DIRECTION('ref_axis',(-1.,0.,0.));
#265=DIRECTION('center_axis',(0.,0.,1.));
#266=DIRECTION('ref_axis',(-1.,0.,0.));
#267=DIRECTION('center_axis',(0.,0.,-1.));
#268=DIRECTION('ref_axis',(-1.,0.,0.));
#269=DIRECTION('center_axis',(0.,0.,1.));
#270=DIRECTION('ref_axis',(-1.,0.,0.));
#271=DIRECTION('center_axis',(0.,0.,1.));
#272=DIRECTION('ref_axis',(-1.,0.,0.));
#273=DIRECTION('center_axis',(0.,0.,-1.));
#274=DIRECTION('ref_axis',(-1.,0.,0.));
#275=DIRECTION('center_axis',(0.,0.,1.));
#276=DIRECTION('ref_axis',(-1.,0.,0.));
#277=DIRECTION('center_axis',(0.,1.,0.));
#278=DIRECTION('ref_axis',(-1.,0.,0.));
#279=DIRECTION('',(1.,0.,0.));
#280=DIRECTION('',(0.,0.,1.));
#281=DIRECTION('',(-1.,0.,0.));
#282=DIRECTION('',(0.,0.,1.));
#283=DIRECTION('center_axis',(1.,5.6520444890008E-16,0.));
#284=DIRECTION('ref_axis',(-7.105427357601E-16,1.,0.));
#285=DIRECTION('',(5.6520444890008E-16,-1.,0.));
#286=DIRECTION('',(-5.6520444890008E-16,1.,0.));
#287=DIRECTION('',(0.,0.,1.));
#288=DIRECTION('center_axis',(-4.84460956200068E-16,1.,0.));
#289=DIRECTION('ref_axis',(-1.,-3.5527136788005E-16,0.));
#290=DIRECTION('',(1.,4.84460956200068E-16,0.));
#291=DIRECTION('',(-1.,-4.84460956200068E-16,0.));
#292=DIRECTION('',(0.,0.,1.));
#293=DIRECTION('center_axis',(1.,0.,0.));
#294=DIRECTION('ref_axis',(0.,1.,0.));
#295=DIRECTION('',(0.,-1.,0.));
#296=DIRECTION('',(0.,1.,0.));
#297=DIRECTION('',(0.,0.,1.));
#298=DIRECTION('center_axis',(1.22464679914735E-16,-1.,0.));
#299=DIRECTION('ref_axis',(1.,1.22464679914735E-16,0.));
#300=DIRECTION('',(-1.,-1.22464679914735E-16,0.));
#301=DIRECTION('',(1.,1.22464679914735E-16,0.));
#302=DIRECTION('',(0.,0.,1.));
#303=DIRECTION('center_axis',(-1.,0.,0.));
#304=DIRECTION('ref_axis',(0.,-1.,0.));
#305=DIRECTION('',(0.,1.,0.));
#306=DIRECTION('',(0.,-1.,0.));
#307=DIRECTION('center_axis',(0.,0.,1.));
#308=DIRECTION('ref_axis',(1.,0.,0.));
#309=DIRECTION('center_axis',(0.,0.,1.));
#310=DIRECTION('ref_axis',(1.,0.,0.));
#311=CARTESIAN_POINT('',(0.,0.,0.));
#312=CARTESIAN_POINT('Origin',(67.5,12.5,0.));
#313=CARTESIAN_POINT('',(71.,12.5,3.2));
#314=CARTESIAN_POINT('Origin',(67.5,12.5,3.2));
#315=CARTESIAN_POINT('',(71.,12.5,0.));
#316=CARTESIAN_POINT('Origin',(67.5,12.5,0.));
#317=CARTESIAN_POINT('Origin',(37.5,12.5,0.));
#318=CARTESIAN_POINT('',(41.,12.5,3.2));
#319=CARTESIAN_POINT('Origin',(37.5,12.5,3.2));
#320=CARTESIAN_POINT('',(41.,12.5,0.));
#321=CARTESIAN_POINT('Origin',(37.5,12.5,0.));
#322=CARTESIAN_POINT('Origin',(12.5,37.5,0.));
#323=CARTESIAN_POINT('',(16.,37.5,3.2));
#324=CARTESIAN_POINT('Origin',(12.5,37.5,3.2));
#325=CARTESIAN_POINT('',(16.,37.5,0.));
#326=CARTESIAN_POINT('Origin',(12.5,37.5,0.));
#327=CARTESIAN_POINT('Origin',(12.5,67.5,0.));
#328=CARTESIAN_POINT('',(16.,67.5,3.2));
#329=CARTESIAN_POINT('Origin',(12.5,67.5,3.2));
#330=CARTESIAN_POINT('',(16.,67.5,0.));
#331=CARTESIAN_POINT('Origin',(12.5,67.5,0.));
#332=CARTESIAN_POINT('Origin',(25.,80.,0.));
#333=CARTESIAN_POINT('',(0.,80.,0.));
#334=CARTESIAN_POINT('',(25.,80.,0.));
#335=CARTESIAN_POINT('',(0.,80.,0.));
#336=CARTESIAN_POINT('',(0.,80.,3.2));
#337=CARTESIAN_POINT('',(0.,80.,0.));
#338=CARTESIAN_POINT('',(25.,80.,3.2));
#339=CARTESIAN_POINT('',(0.,80.,3.2));
#340=CARTESIAN_POINT('',(25.,80.,0.));
#341=CARTESIAN_POINT('Origin',(25.,25.,0.));
#342=CARTESIAN_POINT('',(25.,25.,0.));
#343=CARTESIAN_POINT('',(25.,80.,0.));
#344=CARTESIAN_POINT('',(25.,25.,3.2));
#345=CARTESIAN_POINT('',(25.,80.,3.2));
#346=CARTESIAN_POINT('',(25.,25.,0.));
#347=CARTESIAN_POINT('Origin',(80.,25.,0.));
#348=CARTESIAN_POINT('',(80.,25.,0.));
#349=CARTESIAN_POINT('',(25.,25.,0.));
#350=CARTESIAN_POINT('',(80.,25.,3.2));
#351=CARTESIAN_POINT('',(25.,25.,3.2));
#352=CARTESIAN_POINT('',(80.,25.,0.));
#353=CARTESIAN_POINT('Origin',(80.,8.88178419700125E-15,0.));
#354=CARTESIAN_POINT('',(80.,9.79717439317883E-15,0.));
#355=CARTESIAN_POINT('',(80.,25.,0.));
#356=CARTESIAN_POINT('',(80.,9.79717439317883E-15,3.2));
#357=CARTESIAN_POINT('',(80.,25.,3.2));
#358=CARTESIAN_POINT('',(80.,9.79717439317883E-15,0.));
#359=CARTESIAN_POINT('Origin',(0.,0.,0.));
#360=CARTESIAN_POINT('',(0.,0.,0.));
#361=CARTESIAN_POINT('',(80.,9.79717439317883E-15,0.));
#362=CARTESIAN_POINT('',(0.,0.,3.2));
#363=CARTESIAN_POINT('',(80.,9.79717439317883E-15,3.2));
#364=CARTESIAN_POINT('',(0.,0.,0.));
#365=CARTESIAN_POINT('Origin',(0.,80.,0.));
#366=CARTESIAN_POINT('',(0.,0.,0.));
#367=CARTESIAN_POINT('',(0.,0.,3.2));
#368=CARTESIAN_POINT('Origin',(30.546875,30.546875,0.));
#369=CARTESIAN_POINT('Origin',(30.546875,30.546875,3.2));
#370=UNCERTAINTY_MEASURE_WITH_UNIT(LENGTH_MEASURE(0.01),#374,
'DISTANCE_ACCURACY_VALUE',
'Maximum model space distance between geometric entities at asserted c
onnectivities');
#371=UNCERTAINTY_MEASURE_WITH_UNIT(LENGTH_MEASURE(1.E-6),#374,
'DISTANCE_ACCURACY_VALUE',
'Maximum model space distance between geometric entities at asserted c
onnectivities');
#372=(
GEOMETRIC_REPRESENTATION_CONTEXT(3)
GLOBAL_UNCERTAINTY_ASSIGNED_CONTEXT((#370))
GLOBAL_UNIT_ASSIGNED_CONTEXT((#374,#377,#375))
REPRESENTATION_CONTEXT('','3D')
);
#373=(
GEOMETRIC_REPRESENTATION_CONTEXT(3)
GLOBAL_UNCERTAINTY_ASSIGNED_CONTEXT((#371))
GLOBAL_UNIT_ASSIGNED_CONTEXT((#374,#377,#375))
REPRESENTATION_CONTEXT('','3D')
);
#374=(
LENGTH_UNIT()
NAMED_UNIT(*)
SI_UNIT(.MILLI.,.METRE.)
);
#375=(
NAMED_UNIT(*)
SI_UNIT($,.STERADIAN.)
SOLID_ANGLE_UNIT()
);
#376=DIMENSIONAL_EXPONENTS(0.,0.,0.,0.,0.,0.,0.);
#377=(
CONVERSION_BASED_UNIT('degree',#379)
NAMED_UNIT(#376)
PLANE_ANGLE_UNIT()
);
#378=(
NAMED_UNIT(*)
PLANE_ANGLE_UNIT()
SI_UNIT($,.RADIAN.)
);
#379=PLANE_ANGLE_MEASURE_WITH_UNIT(PLANE_ANGLE_MEASURE(0.01745329252),#378);
#380=SHAPE_DEFINITION_REPRESENTATION(#381,#382);
#381=PRODUCT_DEFINITION_SHAPE('',$,#384);
#382=SHAPE_REPRESENTATION('',(#230),#372);
#383=PRODUCT_DEFINITION_CONTEXT('part definition',#388,'design');
#384=PRODUCT_DEFINITION('DSP8080-6','DSP8080-6',#385,#383);
#385=PRODUCT_DEFINITION_FORMATION('',$,#390);
#386=PRODUCT_RELATED_PRODUCT_CATEGORY('DSP8080-6','DSP8080-6',(#390));
#387=APPLICATION_PROTOCOL_DEFINITION('international standard',
'automotive_design',2009,#388);
#388=APPLICATION_CONTEXT(
'Core Data for Automotive Mechanical Design Process');
#389=PRODUCT_CONTEXT('part definition',#388,'mechanical');
#390=PRODUCT('DSP8080-6','DSP8080-6',$,(#389));
#391=PRESENTATION_STYLE_ASSIGNMENT((#392));
#392=SURFACE_STYLE_USAGE(.BOTH.,#393);
#393=SURFACE_SIDE_STYLE($,(#394));
#394=SURFACE_STYLE_FILL_AREA(#395);
#395=FILL_AREA_STYLE($,(#396));
#396=FILL_AREA_STYLE_COLOUR($,#397);
#397=COLOUR_RGB('',0.749019607843137,0.749019607843137,0.749019607843137);
ENDSEC;
END-ISO-10303-21;
