ISO-10303-21;
HEADER;
/* Generated by software containing ST-Developer
 * from STEP Tools, Inc. (www.steptools.com) 
 */

FILE_DESCRIPTION(
/* description */ (''),
/* implementation_level */ '2;1');

FILE_NAME(
/* name */ 'D:\\\X2\96F64EF6\X0\\\M6\X2\7CFB5217\X0\\\\X2\914D4EF6\X0\\\
DSP\\DSP5555-6.stp',
/* time_stamp */ '2025-03-26T16:52:15+08:00',
/* author */ ('1091212-1'),
/* organization */ (''),
/* preprocessor_version */ 'ST-DEVELOPER v15.6',
/* originating_system */ 'Autodesk Inventor 2015',
/* authorisation */ '');

FILE_SCHEMA (('AUTOMOTIVE_DESIGN { 1 0 10303 214 3 1 1 }'));
ENDSEC;

DATA;
#10=MECHANICAL_DESIGN_GEOMETRIC_PRESENTATION_REPRESENTATION('',(#13),#731);
#11=SHAPE_REPRESENTATION_RELATIONSHIP('SRR','None',#740,#12);
#12=ADVANCED_BREP_SHAPE_REPRESENTATION($,(#14),#730);
#13=STYLED_ITEM('',(#749),#14);
#14=MANIFOLD_SOLID_BREP('\X2\5BE69AD4\X0\1',#443);
#15=FACE_BOUND('',#80,.T.);
#16=FACE_BOUND('',#81,.T.);
#17=FACE_BOUND('',#82,.T.);
#18=FACE_BOUND('',#83,.T.);
#19=FACE_BOUND('',#85,.T.);
#20=FACE_BOUND('',#86,.T.);
#21=FACE_BOUND('',#87,.T.);
#22=FACE_BOUND('',#88,.T.);
#23=PLANE('',#448);
#24=PLANE('',#452);
#25=PLANE('',#456);
#26=PLANE('',#460);
#27=PLANE('',#464);
#28=PLANE('',#468);
#29=PLANE('',#472);
#30=PLANE('',#476);
#31=PLANE('',#477);
#32=PLANE('',#478);
#33=PLANE('',#479);
#34=PLANE('',#480);
#35=PLANE('',#481);
#36=PLANE('',#482);
#37=FACE_OUTER_BOUND('',#59,.T.);
#38=FACE_OUTER_BOUND('',#60,.T.);
#39=FACE_OUTER_BOUND('',#61,.T.);
#40=FACE_OUTER_BOUND('',#62,.T.);
#41=FACE_OUTER_BOUND('',#63,.T.);
#42=FACE_OUTER_BOUND('',#64,.T.);
#43=FACE_OUTER_BOUND('',#65,.T.);
#44=FACE_OUTER_BOUND('',#66,.T.);
#45=FACE_OUTER_BOUND('',#67,.T.);
#46=FACE_OUTER_BOUND('',#68,.T.);
#47=FACE_OUTER_BOUND('',#69,.T.);
#48=FACE_OUTER_BOUND('',#70,.T.);
#49=FACE_OUTER_BOUND('',#71,.T.);
#50=FACE_OUTER_BOUND('',#72,.T.);
#51=FACE_OUTER_BOUND('',#73,.T.);
#52=FACE_OUTER_BOUND('',#74,.T.);
#53=FACE_OUTER_BOUND('',#75,.T.);
#54=FACE_OUTER_BOUND('',#76,.T.);
#55=FACE_OUTER_BOUND('',#77,.T.);
#56=FACE_OUTER_BOUND('',#78,.T.);
#57=FACE_OUTER_BOUND('',#79,.T.);
#58=FACE_OUTER_BOUND('',#84,.T.);
#59=EDGE_LOOP('',(#293,#294,#295,#296));
#60=EDGE_LOOP('',(#297,#298,#299,#300));
#61=EDGE_LOOP('',(#301,#302,#303,#304));
#62=EDGE_LOOP('',(#305,#306,#307,#308));
#63=EDGE_LOOP('',(#309,#310,#311,#312));
#64=EDGE_LOOP('',(#313,#314,#315,#316));
#65=EDGE_LOOP('',(#317,#318,#319,#320));
#66=EDGE_LOOP('',(#321,#322,#323,#324));
#67=EDGE_LOOP('',(#325,#326,#327,#328));
#68=EDGE_LOOP('',(#329,#330,#331,#332));
#69=EDGE_LOOP('',(#333,#334,#335,#336));
#70=EDGE_LOOP('',(#337,#338,#339,#340));
#71=EDGE_LOOP('',(#341,#342,#343,#344));
#72=EDGE_LOOP('',(#345,#346,#347,#348));
#73=EDGE_LOOP('',(#349,#350,#351,#352));
#74=EDGE_LOOP('',(#353,#354,#355,#356));
#75=EDGE_LOOP('',(#357,#358,#359,#360));
#76=EDGE_LOOP('',(#361,#362,#363,#364));
#77=EDGE_LOOP('',(#365,#366,#367,#368));
#78=EDGE_LOOP('',(#369,#370,#371,#372));
#79=EDGE_LOOP('',(#373,#374,#375,#376));
#80=EDGE_LOOP('',(#377,#378,#379,#380));
#81=EDGE_LOOP('',(#381,#382,#383,#384));
#82=EDGE_LOOP('',(#385,#386,#387,#388));
#83=EDGE_LOOP('',(#389,#390,#391,#392));
#84=EDGE_LOOP('',(#393,#394,#395,#396));
#85=EDGE_LOOP('',(#397,#398,#399,#400));
#86=EDGE_LOOP('',(#401,#402,#403,#404));
#87=EDGE_LOOP('',(#405,#406,#407,#408));
#88=EDGE_LOOP('',(#409,#410,#411,#412));
#89=LINE('',#611,#133);
#90=LINE('',#614,#134);
#91=LINE('',#617,#135);
#92=LINE('',#619,#136);
#93=LINE('',#620,#137);
#94=LINE('',#625,#138);
#95=LINE('',#628,#139);
#96=LINE('',#629,#140);
#97=LINE('',#635,#141);
#98=LINE('',#638,#142);
#99=LINE('',#641,#143);
#100=LINE('',#643,#144);
#101=LINE('',#644,#145);
#102=LINE('',#649,#146);
#103=LINE('',#652,#147);
#104=LINE('',#653,#148);
#105=LINE('',#659,#149);
#106=LINE('',#662,#150);
#107=LINE('',#665,#151);
#108=LINE('',#667,#152);
#109=LINE('',#668,#153);
#110=LINE('',#673,#154);
#111=LINE('',#676,#155);
#112=LINE('',#677,#156);
#113=LINE('',#683,#157);
#114=LINE('',#686,#158);
#115=LINE('',#689,#159);
#116=LINE('',#691,#160);
#117=LINE('',#692,#161);
#118=LINE('',#697,#162);
#119=LINE('',#700,#163);
#120=LINE('',#701,#164);
#121=LINE('',#705,#165);
#122=LINE('',#707,#166);
#123=LINE('',#709,#167);
#124=LINE('',#710,#168);
#125=LINE('',#713,#169);
#126=LINE('',#715,#170);
#127=LINE('',#716,#171);
#128=LINE('',#719,#172);
#129=LINE('',#721,#173);
#130=LINE('',#722,#174);
#131=LINE('',#724,#175);
#132=LINE('',#725,#176);
#133=VECTOR('',#489,3.2);
#134=VECTOR('',#492,3.2);
#135=VECTOR('',#495,5.);
#136=VECTOR('',#496,3.2);
#137=VECTOR('',#497,5.);
#138=VECTOR('',#502,3.2);
#139=VECTOR('',#507,5.);
#140=VECTOR('',#508,5.);
#141=VECTOR('',#513,3.2);
#142=VECTOR('',#516,3.2);
#143=VECTOR('',#519,5.);
#144=VECTOR('',#520,3.2);
#145=VECTOR('',#521,5.);
#146=VECTOR('',#526,3.2);
#147=VECTOR('',#531,5.);
#148=VECTOR('',#532,5.);
#149=VECTOR('',#537,3.2);
#150=VECTOR('',#540,3.2);
#151=VECTOR('',#543,5.);
#152=VECTOR('',#544,3.2);
#153=VECTOR('',#545,5.);
#154=VECTOR('',#550,3.2);
#155=VECTOR('',#555,5.);
#156=VECTOR('',#556,5.);
#157=VECTOR('',#561,3.2);
#158=VECTOR('',#564,3.2);
#159=VECTOR('',#567,5.);
#160=VECTOR('',#568,3.2);
#161=VECTOR('',#569,5.);
#162=VECTOR('',#574,3.2);
#163=VECTOR('',#579,5.);
#164=VECTOR('',#580,5.);
#165=VECTOR('',#583,55.);
#166=VECTOR('',#584,3.2);
#167=VECTOR('',#585,55.);
#168=VECTOR('',#586,3.2);
#169=VECTOR('',#589,55.);
#170=VECTOR('',#590,55.);
#171=VECTOR('',#591,3.2);
#172=VECTOR('',#594,55.);
#173=VECTOR('',#595,55.);
#174=VECTOR('',#596,3.2);
#175=VECTOR('',#599,55.);
#176=VECTOR('',#600,55.);
#177=CIRCLE('',#446,3.5);
#178=CIRCLE('',#447,3.5);
#179=CIRCLE('',#450,3.5);
#180=CIRCLE('',#451,3.5);
#181=CIRCLE('',#454,3.5);
#182=CIRCLE('',#455,3.5);
#183=CIRCLE('',#458,3.5);
#184=CIRCLE('',#459,3.5);
#185=CIRCLE('',#462,3.5);
#186=CIRCLE('',#463,3.5);
#187=CIRCLE('',#466,3.5);
#188=CIRCLE('',#467,3.5);
#189=CIRCLE('',#470,3.5);
#190=CIRCLE('',#471,3.5);
#191=CIRCLE('',#474,3.5);
#192=CIRCLE('',#475,3.5);
#193=VERTEX_POINT('',#607);
#194=VERTEX_POINT('',#608);
#195=VERTEX_POINT('',#610);
#196=VERTEX_POINT('',#612);
#197=VERTEX_POINT('',#616);
#198=VERTEX_POINT('',#618);
#199=VERTEX_POINT('',#622);
#200=VERTEX_POINT('',#624);
#201=VERTEX_POINT('',#631);
#202=VERTEX_POINT('',#632);
#203=VERTEX_POINT('',#634);
#204=VERTEX_POINT('',#636);
#205=VERTEX_POINT('',#640);
#206=VERTEX_POINT('',#642);
#207=VERTEX_POINT('',#646);
#208=VERTEX_POINT('',#648);
#209=VERTEX_POINT('',#655);
#210=VERTEX_POINT('',#656);
#211=VERTEX_POINT('',#658);
#212=VERTEX_POINT('',#660);
#213=VERTEX_POINT('',#664);
#214=VERTEX_POINT('',#666);
#215=VERTEX_POINT('',#670);
#216=VERTEX_POINT('',#672);
#217=VERTEX_POINT('',#679);
#218=VERTEX_POINT('',#680);
#219=VERTEX_POINT('',#682);
#220=VERTEX_POINT('',#684);
#221=VERTEX_POINT('',#688);
#222=VERTEX_POINT('',#690);
#223=VERTEX_POINT('',#694);
#224=VERTEX_POINT('',#696);
#225=VERTEX_POINT('',#703);
#226=VERTEX_POINT('',#704);
#227=VERTEX_POINT('',#706);
#228=VERTEX_POINT('',#708);
#229=VERTEX_POINT('',#712);
#230=VERTEX_POINT('',#714);
#231=VERTEX_POINT('',#718);
#232=VERTEX_POINT('',#720);
#233=EDGE_CURVE('',#193,#194,#177,.T.);
#234=EDGE_CURVE('',#193,#195,#89,.T.);
#235=EDGE_CURVE('',#196,#195,#178,.T.);
#236=EDGE_CURVE('',#194,#196,#90,.T.);
#237=EDGE_CURVE('',#197,#193,#91,.T.);
#238=EDGE_CURVE('',#197,#198,#92,.T.);
#239=EDGE_CURVE('',#195,#198,#93,.T.);
#240=EDGE_CURVE('',#199,#197,#179,.T.);
#241=EDGE_CURVE('',#199,#200,#94,.T.);
#242=EDGE_CURVE('',#198,#200,#180,.T.);
#243=EDGE_CURVE('',#194,#199,#95,.T.);
#244=EDGE_CURVE('',#200,#196,#96,.T.);
#245=EDGE_CURVE('',#201,#202,#181,.T.);
#246=EDGE_CURVE('',#201,#203,#97,.T.);
#247=EDGE_CURVE('',#204,#203,#182,.T.);
#248=EDGE_CURVE('',#202,#204,#98,.T.);
#249=EDGE_CURVE('',#205,#201,#99,.T.);
#250=EDGE_CURVE('',#205,#206,#100,.T.);
#251=EDGE_CURVE('',#203,#206,#101,.T.);
#252=EDGE_CURVE('',#207,#205,#183,.T.);
#253=EDGE_CURVE('',#207,#208,#102,.T.);
#254=EDGE_CURVE('',#206,#208,#184,.T.);
#255=EDGE_CURVE('',#202,#207,#103,.T.);
#256=EDGE_CURVE('',#208,#204,#104,.T.);
#257=EDGE_CURVE('',#209,#210,#185,.T.);
#258=EDGE_CURVE('',#209,#211,#105,.T.);
#259=EDGE_CURVE('',#212,#211,#186,.T.);
#260=EDGE_CURVE('',#210,#212,#106,.T.);
#261=EDGE_CURVE('',#213,#209,#107,.T.);
#262=EDGE_CURVE('',#213,#214,#108,.T.);
#263=EDGE_CURVE('',#211,#214,#109,.T.);
#264=EDGE_CURVE('',#215,#213,#187,.T.);
#265=EDGE_CURVE('',#215,#216,#110,.T.);
#266=EDGE_CURVE('',#214,#216,#188,.T.);
#267=EDGE_CURVE('',#210,#215,#111,.T.);
#268=EDGE_CURVE('',#216,#212,#112,.T.);
#269=EDGE_CURVE('',#217,#218,#189,.T.);
#270=EDGE_CURVE('',#217,#219,#113,.T.);
#271=EDGE_CURVE('',#220,#219,#190,.T.);
#272=EDGE_CURVE('',#218,#220,#114,.T.);
#273=EDGE_CURVE('',#221,#217,#115,.T.);
#274=EDGE_CURVE('',#221,#222,#116,.T.);
#275=EDGE_CURVE('',#219,#222,#117,.T.);
#276=EDGE_CURVE('',#223,#221,#191,.T.);
#277=EDGE_CURVE('',#223,#224,#118,.T.);
#278=EDGE_CURVE('',#222,#224,#192,.T.);
#279=EDGE_CURVE('',#218,#223,#119,.T.);
#280=EDGE_CURVE('',#224,#220,#120,.T.);
#281=EDGE_CURVE('',#225,#226,#121,.T.);
#282=EDGE_CURVE('',#225,#227,#122,.T.);
#283=EDGE_CURVE('',#228,#227,#123,.T.);
#284=EDGE_CURVE('',#226,#228,#124,.T.);
#285=EDGE_CURVE('',#226,#229,#125,.T.);
#286=EDGE_CURVE('',#230,#228,#126,.T.);
#287=EDGE_CURVE('',#229,#230,#127,.T.);
#288=EDGE_CURVE('',#229,#231,#128,.T.);
#289=EDGE_CURVE('',#232,#230,#129,.T.);
#290=EDGE_CURVE('',#231,#232,#130,.T.);
#291=EDGE_CURVE('',#231,#225,#131,.T.);
#292=EDGE_CURVE('',#227,#232,#132,.T.);
#293=ORIENTED_EDGE('',*,*,#233,.F.);
#294=ORIENTED_EDGE('',*,*,#234,.T.);
#295=ORIENTED_EDGE('',*,*,#235,.F.);
#296=ORIENTED_EDGE('',*,*,#236,.F.);
#297=ORIENTED_EDGE('',*,*,#237,.F.);
#298=ORIENTED_EDGE('',*,*,#238,.T.);
#299=ORIENTED_EDGE('',*,*,#239,.F.);
#300=ORIENTED_EDGE('',*,*,#234,.F.);
#301=ORIENTED_EDGE('',*,*,#240,.F.);
#302=ORIENTED_EDGE('',*,*,#241,.T.);
#303=ORIENTED_EDGE('',*,*,#242,.F.);
#304=ORIENTED_EDGE('',*,*,#238,.F.);
#305=ORIENTED_EDGE('',*,*,#243,.F.);
#306=ORIENTED_EDGE('',*,*,#236,.T.);
#307=ORIENTED_EDGE('',*,*,#244,.F.);
#308=ORIENTED_EDGE('',*,*,#241,.F.);
#309=ORIENTED_EDGE('',*,*,#245,.F.);
#310=ORIENTED_EDGE('',*,*,#246,.T.);
#311=ORIENTED_EDGE('',*,*,#247,.F.);
#312=ORIENTED_EDGE('',*,*,#248,.F.);
#313=ORIENTED_EDGE('',*,*,#249,.F.);
#314=ORIENTED_EDGE('',*,*,#250,.T.);
#315=ORIENTED_EDGE('',*,*,#251,.F.);
#316=ORIENTED_EDGE('',*,*,#246,.F.);
#317=ORIENTED_EDGE('',*,*,#252,.F.);
#318=ORIENTED_EDGE('',*,*,#253,.T.);
#319=ORIENTED_EDGE('',*,*,#254,.F.);
#320=ORIENTED_EDGE('',*,*,#250,.F.);
#321=ORIENTED_EDGE('',*,*,#255,.F.);
#322=ORIENTED_EDGE('',*,*,#248,.T.);
#323=ORIENTED_EDGE('',*,*,#256,.F.);
#324=ORIENTED_EDGE('',*,*,#253,.F.);
#325=ORIENTED_EDGE('',*,*,#257,.F.);
#326=ORIENTED_EDGE('',*,*,#258,.T.);
#327=ORIENTED_EDGE('',*,*,#259,.F.);
#328=ORIENTED_EDGE('',*,*,#260,.F.);
#329=ORIENTED_EDGE('',*,*,#261,.F.);
#330=ORIENTED_EDGE('',*,*,#262,.T.);
#331=ORIENTED_EDGE('',*,*,#263,.F.);
#332=ORIENTED_EDGE('',*,*,#258,.F.);
#333=ORIENTED_EDGE('',*,*,#264,.F.);
#334=ORIENTED_EDGE('',*,*,#265,.T.);
#335=ORIENTED_EDGE('',*,*,#266,.F.);
#336=ORIENTED_EDGE('',*,*,#262,.F.);
#337=ORIENTED_EDGE('',*,*,#267,.F.);
#338=ORIENTED_EDGE('',*,*,#260,.T.);
#339=ORIENTED_EDGE('',*,*,#268,.F.);
#340=ORIENTED_EDGE('',*,*,#265,.F.);
#341=ORIENTED_EDGE('',*,*,#269,.F.);
#342=ORIENTED_EDGE('',*,*,#270,.T.);
#343=ORIENTED_EDGE('',*,*,#271,.F.);
#344=ORIENTED_EDGE('',*,*,#272,.F.);
#345=ORIENTED_EDGE('',*,*,#273,.F.);
#346=ORIENTED_EDGE('',*,*,#274,.T.);
#347=ORIENTED_EDGE('',*,*,#275,.F.);
#348=ORIENTED_EDGE('',*,*,#270,.F.);
#349=ORIENTED_EDGE('',*,*,#276,.F.);
#350=ORIENTED_EDGE('',*,*,#277,.T.);
#351=ORIENTED_EDGE('',*,*,#278,.F.);
#352=ORIENTED_EDGE('',*,*,#274,.F.);
#353=ORIENTED_EDGE('',*,*,#279,.F.);
#354=ORIENTED_EDGE('',*,*,#272,.T.);
#355=ORIENTED_EDGE('',*,*,#280,.F.);
#356=ORIENTED_EDGE('',*,*,#277,.F.);
#357=ORIENTED_EDGE('',*,*,#281,.F.);
#358=ORIENTED_EDGE('',*,*,#282,.T.);
#359=ORIENTED_EDGE('',*,*,#283,.F.);
#360=ORIENTED_EDGE('',*,*,#284,.F.);
#361=ORIENTED_EDGE('',*,*,#285,.F.);
#362=ORIENTED_EDGE('',*,*,#284,.T.);
#363=ORIENTED_EDGE('',*,*,#286,.F.);
#364=ORIENTED_EDGE('',*,*,#287,.F.);
#365=ORIENTED_EDGE('',*,*,#288,.F.);
#366=ORIENTED_EDGE('',*,*,#287,.T.);
#367=ORIENTED_EDGE('',*,*,#289,.F.);
#368=ORIENTED_EDGE('',*,*,#290,.F.);
#369=ORIENTED_EDGE('',*,*,#291,.F.);
#370=ORIENTED_EDGE('',*,*,#290,.T.);
#371=ORIENTED_EDGE('',*,*,#292,.F.);
#372=ORIENTED_EDGE('',*,*,#282,.F.);
#373=ORIENTED_EDGE('',*,*,#291,.T.);
#374=ORIENTED_EDGE('',*,*,#281,.T.);
#375=ORIENTED_EDGE('',*,*,#285,.T.);
#376=ORIENTED_EDGE('',*,*,#288,.T.);
#377=ORIENTED_EDGE('',*,*,#233,.T.);
#378=ORIENTED_EDGE('',*,*,#243,.T.);
#379=ORIENTED_EDGE('',*,*,#240,.T.);
#380=ORIENTED_EDGE('',*,*,#237,.T.);
#381=ORIENTED_EDGE('',*,*,#245,.T.);
#382=ORIENTED_EDGE('',*,*,#255,.T.);
#383=ORIENTED_EDGE('',*,*,#252,.T.);
#384=ORIENTED_EDGE('',*,*,#249,.T.);
#385=ORIENTED_EDGE('',*,*,#257,.T.);
#386=ORIENTED_EDGE('',*,*,#267,.T.);
#387=ORIENTED_EDGE('',*,*,#264,.T.);
#388=ORIENTED_EDGE('',*,*,#261,.T.);
#389=ORIENTED_EDGE('',*,*,#269,.T.);
#390=ORIENTED_EDGE('',*,*,#279,.T.);
#391=ORIENTED_EDGE('',*,*,#276,.T.);
#392=ORIENTED_EDGE('',*,*,#273,.T.);
#393=ORIENTED_EDGE('',*,*,#292,.T.);
#394=ORIENTED_EDGE('',*,*,#289,.T.);
#395=ORIENTED_EDGE('',*,*,#286,.T.);
#396=ORIENTED_EDGE('',*,*,#283,.T.);
#397=ORIENTED_EDGE('',*,*,#235,.T.);
#398=ORIENTED_EDGE('',*,*,#239,.T.);
#399=ORIENTED_EDGE('',*,*,#242,.T.);
#400=ORIENTED_EDGE('',*,*,#244,.T.);
#401=ORIENTED_EDGE('',*,*,#247,.T.);
#402=ORIENTED_EDGE('',*,*,#251,.T.);
#403=ORIENTED_EDGE('',*,*,#254,.T.);
#404=ORIENTED_EDGE('',*,*,#256,.T.);
#405=ORIENTED_EDGE('',*,*,#259,.T.);
#406=ORIENTED_EDGE('',*,*,#263,.T.);
#407=ORIENTED_EDGE('',*,*,#266,.T.);
#408=ORIENTED_EDGE('',*,*,#268,.T.);
#409=ORIENTED_EDGE('',*,*,#271,.T.);
#410=ORIENTED_EDGE('',*,*,#275,.T.);
#411=ORIENTED_EDGE('',*,*,#278,.T.);
#412=ORIENTED_EDGE('',*,*,#280,.T.);
#413=CYLINDRICAL_SURFACE('',#445,3.5);
#414=CYLINDRICAL_SURFACE('',#449,3.5);
#415=CYLINDRICAL_SURFACE('',#453,3.5);
#416=CYLINDRICAL_SURFACE('',#457,3.5);
#417=CYLINDRICAL_SURFACE('',#461,3.5);
#418=CYLINDRICAL_SURFACE('',#465,3.5);
#419=CYLINDRICAL_SURFACE('',#469,3.5);
#420=CYLINDRICAL_SURFACE('',#473,3.5);
#421=ADVANCED_FACE('',(#37),#413,.F.);
#422=ADVANCED_FACE('',(#38),#23,.F.);
#423=ADVANCED_FACE('',(#39),#414,.F.);
#424=ADVANCED_FACE('',(#40),#24,.F.);
#425=ADVANCED_FACE('',(#41),#415,.F.);
#426=ADVANCED_FACE('',(#42),#25,.F.);
#427=ADVANCED_FACE('',(#43),#416,.F.);
#428=ADVANCED_FACE('',(#44),#26,.F.);
#429=ADVANCED_FACE('',(#45),#417,.F.);
#430=ADVANCED_FACE('',(#46),#27,.F.);
#431=ADVANCED_FACE('',(#47),#418,.F.);
#432=ADVANCED_FACE('',(#48),#28,.F.);
#433=ADVANCED_FACE('',(#49),#419,.F.);
#434=ADVANCED_FACE('',(#50),#29,.F.);
#435=ADVANCED_FACE('',(#51),#420,.F.);
#436=ADVANCED_FACE('',(#52),#30,.F.);
#437=ADVANCED_FACE('',(#53),#31,.T.);
#438=ADVANCED_FACE('',(#54),#32,.T.);
#439=ADVANCED_FACE('',(#55),#33,.T.);
#440=ADVANCED_FACE('',(#56),#34,.T.);
#441=ADVANCED_FACE('',(#57,#15,#16,#17,#18),#35,.F.);
#442=ADVANCED_FACE('',(#58,#19,#20,#21,#22),#36,.T.);
#443=CLOSED_SHELL('',(#421,#422,#423,#424,#425,#426,#427,#428,#429,#430,
#431,#432,#433,#434,#435,#436,#437,#438,#439,#440,#441,#442));
#444=AXIS2_PLACEMENT_3D('placement',#605,#483,#484);
#445=AXIS2_PLACEMENT_3D('',#606,#485,#486);
#446=AXIS2_PLACEMENT_3D('',#609,#487,#488);
#447=AXIS2_PLACEMENT_3D('',#613,#490,#491);
#448=AXIS2_PLACEMENT_3D('',#615,#493,#494);
#449=AXIS2_PLACEMENT_3D('',#621,#498,#499);
#450=AXIS2_PLACEMENT_3D('',#623,#500,#501);
#451=AXIS2_PLACEMENT_3D('',#626,#503,#504);
#452=AXIS2_PLACEMENT_3D('',#627,#505,#506);
#453=AXIS2_PLACEMENT_3D('',#630,#509,#510);
#454=AXIS2_PLACEMENT_3D('',#633,#511,#512);
#455=AXIS2_PLACEMENT_3D('',#637,#514,#515);
#456=AXIS2_PLACEMENT_3D('',#639,#517,#518);
#457=AXIS2_PLACEMENT_3D('',#645,#522,#523);
#458=AXIS2_PLACEMENT_3D('',#647,#524,#525);
#459=AXIS2_PLACEMENT_3D('',#650,#527,#528);
#460=AXIS2_PLACEMENT_3D('',#651,#529,#530);
#461=AXIS2_PLACEMENT_3D('',#654,#533,#534);
#462=AXIS2_PLACEMENT_3D('',#657,#535,#536);
#463=AXIS2_PLACEMENT_3D('',#661,#538,#539);
#464=AXIS2_PLACEMENT_3D('',#663,#541,#542);
#465=AXIS2_PLACEMENT_3D('',#669,#546,#547);
#466=AXIS2_PLACEMENT_3D('',#671,#548,#549);
#467=AXIS2_PLACEMENT_3D('',#674,#551,#552);
#468=AXIS2_PLACEMENT_3D('',#675,#553,#554);
#469=AXIS2_PLACEMENT_3D('',#678,#557,#558);
#470=AXIS2_PLACEMENT_3D('',#681,#559,#560);
#471=AXIS2_PLACEMENT_3D('',#685,#562,#563);
#472=AXIS2_PLACEMENT_3D('',#687,#565,#566);
#473=AXIS2_PLACEMENT_3D('',#693,#570,#571);
#474=AXIS2_PLACEMENT_3D('',#695,#572,#573);
#475=AXIS2_PLACEMENT_3D('',#698,#575,#576);
#476=AXIS2_PLACEMENT_3D('',#699,#577,#578);
#477=AXIS2_PLACEMENT_3D('',#702,#581,#582);
#478=AXIS2_PLACEMENT_3D('',#711,#587,#588);
#479=AXIS2_PLACEMENT_3D('',#717,#592,#593);
#480=AXIS2_PLACEMENT_3D('',#723,#597,#598);
#481=AXIS2_PLACEMENT_3D('',#726,#601,#602);
#482=AXIS2_PLACEMENT_3D('',#727,#603,#604);
#483=DIRECTION('axis',(0.,0.,1.));
#484=DIRECTION('refdir',(1.,0.,0.));
#485=DIRECTION('center_axis',(0.,0.,1.));
#486=DIRECTION('ref_axis',(1.,0.,0.));
#487=DIRECTION('center_axis',(0.,0.,1.));
#488=DIRECTION('ref_axis',(1.,0.,0.));
#489=DIRECTION('',(0.,0.,1.));
#490=DIRECTION('center_axis',(0.,0.,-1.));
#491=DIRECTION('ref_axis',(1.,0.,0.));
#492=DIRECTION('',(0.,0.,1.));
#493=DIRECTION('center_axis',(1.,0.,0.));
#494=DIRECTION('ref_axis',(0.,1.,0.));
#495=DIRECTION('',(0.,1.,0.));
#496=DIRECTION('',(0.,0.,1.));
#497=DIRECTION('',(0.,-1.,0.));
#498=DIRECTION('center_axis',(0.,0.,1.));
#499=DIRECTION('ref_axis',(-1.,0.,0.));
#500=DIRECTION('center_axis',(0.,0.,1.));
#501=DIRECTION('ref_axis',(-1.,0.,0.));
#502=DIRECTION('',(0.,0.,1.));
#503=DIRECTION('center_axis',(0.,0.,-1.));
#504=DIRECTION('ref_axis',(-1.,0.,0.));
#505=DIRECTION('center_axis',(-1.,0.,0.));
#506=DIRECTION('ref_axis',(0.,-1.,0.));
#507=DIRECTION('',(0.,-1.,0.));
#508=DIRECTION('',(0.,1.,0.));
#509=DIRECTION('center_axis',(0.,0.,1.));
#510=DIRECTION('ref_axis',(1.,0.,0.));
#511=DIRECTION('center_axis',(0.,0.,1.));
#512=DIRECTION('ref_axis',(1.,0.,0.));
#513=DIRECTION('',(0.,0.,1.));
#514=DIRECTION('center_axis',(0.,0.,-1.));
#515=DIRECTION('ref_axis',(1.,0.,0.));
#516=DIRECTION('',(0.,0.,1.));
#517=DIRECTION('center_axis',(1.,0.,0.));
#518=DIRECTION('ref_axis',(0.,1.,0.));
#519=DIRECTION('',(0.,1.,0.));
#520=DIRECTION('',(0.,0.,1.));
#521=DIRECTION('',(0.,-1.,0.));
#522=DIRECTION('center_axis',(0.,0.,1.));
#523=DIRECTION('ref_axis',(-1.,0.,0.));
#524=DIRECTION('center_axis',(0.,0.,1.));
#525=DIRECTION('ref_axis',(-1.,0.,0.));
#526=DIRECTION('',(0.,0.,1.));
#527=DIRECTION('center_axis',(0.,0.,-1.));
#528=DIRECTION('ref_axis',(-1.,0.,0.));
#529=DIRECTION('center_axis',(-1.,0.,0.));
#530=DIRECTION('ref_axis',(0.,-1.,0.));
#531=DIRECTION('',(0.,-1.,0.));
#532=DIRECTION('',(0.,1.,0.));
#533=DIRECTION('center_axis',(0.,0.,1.));
#534=DIRECTION('ref_axis',(1.,0.,0.));
#535=DIRECTION('center_axis',(0.,0.,1.));
#536=DIRECTION('ref_axis',(1.,0.,0.));
#537=DIRECTION('',(0.,0.,1.));
#538=DIRECTION('center_axis',(0.,0.,-1.));
#539=DIRECTION('ref_axis',(1.,0.,0.));
#540=DIRECTION('',(0.,0.,1.));
#541=DIRECTION('center_axis',(1.,0.,0.));
#542=DIRECTION('ref_axis',(0.,1.,0.));
#543=DIRECTION('',(0.,1.,0.));
#544=DIRECTION('',(0.,0.,1.));
#545=DIRECTION('',(0.,-1.,0.));
#546=DIRECTION('center_axis',(0.,0.,1.));
#547=DIRECTION('ref_axis',(-1.,0.,0.));
#548=DIRECTION('center_axis',(0.,0.,1.));
#549=DIRECTION('ref_axis',(-1.,0.,0.));
#550=DIRECTION('',(0.,0.,1.));
#551=DIRECTION('center_axis',(0.,0.,-1.));
#552=DIRECTION('ref_axis',(-1.,0.,0.));
#553=DIRECTION('center_axis',(-1.,0.,0.));
#554=DIRECTION('ref_axis',(0.,-1.,0.));
#555=DIRECTION('',(0.,-1.,0.));
#556=DIRECTION('',(0.,1.,0.));
#557=DIRECTION('center_axis',(0.,0.,1.));
#558=DIRECTION('ref_axis',(1.,0.,0.));
#559=DIRECTION('center_axis',(0.,0.,1.));
#560=DIRECTION('ref_axis',(1.,0.,0.));
#561=DIRECTION('',(0.,0.,1.));
#562=DIRECTION('center_axis',(0.,0.,-1.));
#563=DIRECTION('ref_axis',(1.,0.,0.));
#564=DIRECTION('',(0.,0.,1.));
#565=DIRECTION('center_axis',(1.,0.,0.));
#566=DIRECTION('ref_axis',(0.,1.,0.));
#567=DIRECTION('',(0.,1.,0.));
#568=DIRECTION('',(0.,0.,1.));
#569=DIRECTION('',(0.,-1.,0.));
#570=DIRECTION('center_axis',(0.,0.,1.));
#571=DIRECTION('ref_axis',(-1.,0.,0.));
#572=DIRECTION('center_axis',(0.,0.,1.));
#573=DIRECTION('ref_axis',(-1.,0.,0.));
#574=DIRECTION('',(0.,0.,1.));
#575=DIRECTION('center_axis',(0.,0.,-1.));
#576=DIRECTION('ref_axis',(-1.,0.,0.));
#577=DIRECTION('center_axis',(-1.,0.,0.));
#578=DIRECTION('ref_axis',(0.,-1.,0.));
#579=DIRECTION('',(0.,-1.,0.));
#580=DIRECTION('',(0.,1.,0.));
#581=DIRECTION('center_axis',(-1.,0.,0.));
#582=DIRECTION('ref_axis',(0.,-1.,0.));
#583=DIRECTION('',(0.,1.,0.));
#584=DIRECTION('',(0.,0.,1.));
#585=DIRECTION('',(0.,-1.,0.));
#586=DIRECTION('',(0.,0.,1.));
#587=DIRECTION('center_axis',(0.,1.,0.));
#588=DIRECTION('ref_axis',(-1.,0.,0.));
#589=DIRECTION('',(1.,0.,0.));
#590=DIRECTION('',(-1.,0.,0.));
#591=DIRECTION('',(0.,0.,1.));
#592=DIRECTION('center_axis',(1.,0.,0.));
#593=DIRECTION('ref_axis',(0.,1.,0.));
#594=DIRECTION('',(0.,-1.,0.));
#595=DIRECTION('',(0.,1.,0.));
#596=DIRECTION('',(0.,0.,1.));
#597=DIRECTION('center_axis',(0.,-1.,0.));
#598=DIRECTION('ref_axis',(1.,0.,0.));
#599=DIRECTION('',(-1.,0.,0.));
#600=DIRECTION('',(1.,0.,0.));
#601=DIRECTION('center_axis',(0.,0.,1.));
#602=DIRECTION('ref_axis',(1.,0.,0.));
#603=DIRECTION('center_axis',(0.,0.,1.));
#604=DIRECTION('ref_axis',(1.,0.,0.));
#605=CARTESIAN_POINT('',(0.,0.,0.));
#606=CARTESIAN_POINT('Origin',(-15.,-12.5,0.));
#607=CARTESIAN_POINT('',(-11.5,-12.5,0.));
#608=CARTESIAN_POINT('',(-18.5,-12.5,0.));
#609=CARTESIAN_POINT('Origin',(-15.,-12.5,0.));
#610=CARTESIAN_POINT('',(-11.5,-12.5,3.2));
#611=CARTESIAN_POINT('',(-11.5,-12.5,0.));
#612=CARTESIAN_POINT('',(-18.5,-12.5,3.2));
#613=CARTESIAN_POINT('Origin',(-15.,-12.5,3.2));
#614=CARTESIAN_POINT('',(-18.5,-12.5,0.));
#615=CARTESIAN_POINT('Origin',(-11.5,-17.5,0.));
#616=CARTESIAN_POINT('',(-11.5,-17.5,0.));
#617=CARTESIAN_POINT('',(-11.5,-8.75,0.));
#618=CARTESIAN_POINT('',(-11.5,-17.5,3.2));
#619=CARTESIAN_POINT('',(-11.5,-17.5,0.));
#620=CARTESIAN_POINT('',(-11.5,-8.75,3.2));
#621=CARTESIAN_POINT('Origin',(-15.,-17.5,0.));
#622=CARTESIAN_POINT('',(-18.5,-17.5,0.));
#623=CARTESIAN_POINT('Origin',(-15.,-17.5,0.));
#624=CARTESIAN_POINT('',(-18.5,-17.5,3.2));
#625=CARTESIAN_POINT('',(-18.5,-17.5,0.));
#626=CARTESIAN_POINT('Origin',(-15.,-17.5,3.2));
#627=CARTESIAN_POINT('Origin',(-18.5,-12.5,0.));
#628=CARTESIAN_POINT('',(-18.5,-6.25,0.));
#629=CARTESIAN_POINT('',(-18.5,-6.25,3.2));
#630=CARTESIAN_POINT('Origin',(15.,-12.5,0.));
#631=CARTESIAN_POINT('',(18.5,-12.5,0.));
#632=CARTESIAN_POINT('',(11.5,-12.5,0.));
#633=CARTESIAN_POINT('Origin',(15.,-12.5,0.));
#634=CARTESIAN_POINT('',(18.5,-12.5,3.2));
#635=CARTESIAN_POINT('',(18.5,-12.5,0.));
#636=CARTESIAN_POINT('',(11.5,-12.5,3.2));
#637=CARTESIAN_POINT('Origin',(15.,-12.5,3.2));
#638=CARTESIAN_POINT('',(11.5,-12.5,0.));
#639=CARTESIAN_POINT('Origin',(18.5,-17.5,0.));
#640=CARTESIAN_POINT('',(18.5,-17.5,0.));
#641=CARTESIAN_POINT('',(18.5,-8.75,0.));
#642=CARTESIAN_POINT('',(18.5,-17.5,3.2));
#643=CARTESIAN_POINT('',(18.5,-17.5,0.));
#644=CARTESIAN_POINT('',(18.5,-8.75,3.2));
#645=CARTESIAN_POINT('Origin',(15.,-17.5,0.));
#646=CARTESIAN_POINT('',(11.5,-17.5,0.));
#647=CARTESIAN_POINT('Origin',(15.,-17.5,0.));
#648=CARTESIAN_POINT('',(11.5,-17.5,3.2));
#649=CARTESIAN_POINT('',(11.5,-17.5,0.));
#650=CARTESIAN_POINT('Origin',(15.,-17.5,3.2));
#651=CARTESIAN_POINT('Origin',(11.5,-12.5,0.));
#652=CARTESIAN_POINT('',(11.5,-6.25,0.));
#653=CARTESIAN_POINT('',(11.5,-6.25,3.2));
#654=CARTESIAN_POINT('Origin',(-15.,17.5,0.));
#655=CARTESIAN_POINT('',(-11.5,17.5,0.));
#656=CARTESIAN_POINT('',(-18.5,17.5,0.));
#657=CARTESIAN_POINT('Origin',(-15.,17.5,0.));
#658=CARTESIAN_POINT('',(-11.5,17.5,3.2));
#659=CARTESIAN_POINT('',(-11.5,17.5,0.));
#660=CARTESIAN_POINT('',(-18.5,17.5,3.2));
#661=CARTESIAN_POINT('Origin',(-15.,17.5,3.2));
#662=CARTESIAN_POINT('',(-18.5,17.5,0.));
#663=CARTESIAN_POINT('Origin',(-11.5,12.5,0.));
#664=CARTESIAN_POINT('',(-11.5,12.5,0.));
#665=CARTESIAN_POINT('',(-11.5,6.25,0.));
#666=CARTESIAN_POINT('',(-11.5,12.5,3.2));
#667=CARTESIAN_POINT('',(-11.5,12.5,0.));
#668=CARTESIAN_POINT('',(-11.5,6.25,3.2));
#669=CARTESIAN_POINT('Origin',(-15.,12.5,0.));
#670=CARTESIAN_POINT('',(-18.5,12.5,0.));
#671=CARTESIAN_POINT('Origin',(-15.,12.5,0.));
#672=CARTESIAN_POINT('',(-18.5,12.5,3.2));
#673=CARTESIAN_POINT('',(-18.5,12.5,0.));
#674=CARTESIAN_POINT('Origin',(-15.,12.5,3.2));
#675=CARTESIAN_POINT('Origin',(-18.5,17.5,0.));
#676=CARTESIAN_POINT('',(-18.5,8.75,0.));
#677=CARTESIAN_POINT('',(-18.5,8.75,3.2));
#678=CARTESIAN_POINT('Origin',(15.,17.5,0.));
#679=CARTESIAN_POINT('',(18.5,17.5,0.));
#680=CARTESIAN_POINT('',(11.5,17.5,0.));
#681=CARTESIAN_POINT('Origin',(15.,17.5,0.));
#682=CARTESIAN_POINT('',(18.5,17.5,3.2));
#683=CARTESIAN_POINT('',(18.5,17.5,0.));
#684=CARTESIAN_POINT('',(11.5,17.5,3.2));
#685=CARTESIAN_POINT('Origin',(15.,17.5,3.2));
#686=CARTESIAN_POINT('',(11.5,17.5,0.));
#687=CARTESIAN_POINT('Origin',(18.5,12.5,0.));
#688=CARTESIAN_POINT('',(18.5,12.5,0.));
#689=CARTESIAN_POINT('',(18.5,6.25,0.));
#690=CARTESIAN_POINT('',(18.5,12.5,3.2));
#691=CARTESIAN_POINT('',(18.5,12.5,0.));
#692=CARTESIAN_POINT('',(18.5,6.25,3.2));
#693=CARTESIAN_POINT('Origin',(15.,12.5,0.));
#694=CARTESIAN_POINT('',(11.5,12.5,0.));
#695=CARTESIAN_POINT('Origin',(15.,12.5,0.));
#696=CARTESIAN_POINT('',(11.5,12.5,3.2));
#697=CARTESIAN_POINT('',(11.5,12.5,0.));
#698=CARTESIAN_POINT('Origin',(15.,12.5,3.2));
#699=CARTESIAN_POINT('Origin',(11.5,17.5,0.));
#700=CARTESIAN_POINT('',(11.5,8.75,0.));
#701=CARTESIAN_POINT('',(11.5,8.75,3.2));
#702=CARTESIAN_POINT('Origin',(-27.5,27.5,0.));
#703=CARTESIAN_POINT('',(-27.5,-27.5,0.));
#704=CARTESIAN_POINT('',(-27.5,27.5,0.));
#705=CARTESIAN_POINT('',(-27.5,-27.5,0.));
#706=CARTESIAN_POINT('',(-27.5,-27.5,3.2));
#707=CARTESIAN_POINT('',(-27.5,-27.5,0.));
#708=CARTESIAN_POINT('',(-27.5,27.5,3.2));
#709=CARTESIAN_POINT('',(-27.5,-27.5,3.2));
#710=CARTESIAN_POINT('',(-27.5,27.5,0.));
#711=CARTESIAN_POINT('Origin',(27.5,27.5,0.));
#712=CARTESIAN_POINT('',(27.5,27.5,0.));
#713=CARTESIAN_POINT('',(-27.5,27.5,0.));
#714=CARTESIAN_POINT('',(27.5,27.5,3.2));
#715=CARTESIAN_POINT('',(-27.5,27.5,3.2));
#716=CARTESIAN_POINT('',(27.5,27.5,0.));
#717=CARTESIAN_POINT('Origin',(27.5,-27.5,0.));
#718=CARTESIAN_POINT('',(27.5,-27.5,0.));
#719=CARTESIAN_POINT('',(27.5,27.5,0.));
#720=CARTESIAN_POINT('',(27.5,-27.5,3.2));
#721=CARTESIAN_POINT('',(27.5,27.5,3.2));
#722=CARTESIAN_POINT('',(27.5,-27.5,0.));
#723=CARTESIAN_POINT('Origin',(-27.5,-27.5,0.));
#724=CARTESIAN_POINT('',(27.5,-27.5,0.));
#725=CARTESIAN_POINT('',(27.5,-27.5,3.2));
#726=CARTESIAN_POINT('Origin',(0.,0.,0.));
#727=CARTESIAN_POINT('Origin',(0.,0.,3.2));
#728=UNCERTAINTY_MEASURE_WITH_UNIT(LENGTH_MEASURE(0.01),#732,
'DISTANCE_ACCURACY_VALUE',
'Maximum model space distance between geometric entities at asserted c
onnectivities');
#729=UNCERTAINTY_MEASURE_WITH_UNIT(LENGTH_MEASURE(1.E-6),#732,
'DISTANCE_ACCURACY_VALUE',
'Maximum model space distance between geometric entities at asserted c
onnectivities');
#730=(
GEOMETRIC_REPRESENTATION_CONTEXT(3)
GLOBAL_UNCERTAINTY_ASSIGNED_CONTEXT((#728))
GLOBAL_UNIT_ASSIGNED_CONTEXT((#732,#735,#733))
REPRESENTATION_CONTEXT('','3D')
);
#731=(
GEOMETRIC_REPRESENTATION_CONTEXT(3)
GLOBAL_UNCERTAINTY_ASSIGNED_CONTEXT((#729))
GLOBAL_UNIT_ASSIGNED_CONTEXT((#732,#735,#733))
REPRESENTATION_CONTEXT('','3D')
);
#732=(
LENGTH_UNIT()
NAMED_UNIT(*)
SI_UNIT(.MILLI.,.METRE.)
);
#733=(
NAMED_UNIT(*)
SI_UNIT($,.STERADIAN.)
SOLID_ANGLE_UNIT()
);
#734=DIMENSIONAL_EXPONENTS(0.,0.,0.,0.,0.,0.,0.);
#735=(
CONVERSION_BASED_UNIT('degree',#737)
NAMED_UNIT(#734)
PLANE_ANGLE_UNIT()
);
#736=(
NAMED_UNIT(*)
PLANE_ANGLE_UNIT()
SI_UNIT($,.RADIAN.)
);
#737=PLANE_ANGLE_MEASURE_WITH_UNIT(PLANE_ANGLE_MEASURE(0.01745329252),#736);
#738=SHAPE_DEFINITION_REPRESENTATION(#739,#740);
#739=PRODUCT_DEFINITION_SHAPE('',$,#742);
#740=SHAPE_REPRESENTATION('',(#444),#730);
#741=PRODUCT_DEFINITION_CONTEXT('part definition',#746,'design');
#742=PRODUCT_DEFINITION('DSP5555-6','DSP5555-6',#743,#741);
#743=PRODUCT_DEFINITION_FORMATION('',$,#748);
#744=PRODUCT_RELATED_PRODUCT_CATEGORY('DSP5555-6','DSP5555-6',(#748));
#745=APPLICATION_PROTOCOL_DEFINITION('international standard',
'automotive_design',2009,#746);
#746=APPLICATION_CONTEXT(
'Core Data for Automotive Mechanical Design Process');
#747=PRODUCT_CONTEXT('part definition',#746,'mechanical');
#748=PRODUCT('DSP5555-6','DSP5555-6',$,(#747));
#749=PRESENTATION_STYLE_ASSIGNMENT((#750));
#750=SURFACE_STYLE_USAGE(.BOTH.,#751);
#751=SURFACE_SIDE_STYLE($,(#752));
#752=SURFACE_STYLE_FILL_AREA(#753);
#753=FILL_AREA_STYLE($,(#754));
#754=FILL_AREA_STYLE_COLOUR($,#755);
#755=COLOUR_RGB('',0.749019607843137,0.749019607843137,0.749019607843137);
ENDSEC;
END-ISO-10303-21;
