ISO-10303-21;
HEADER;
/* Generated by software containing ST-Developer
 * from STEP Tools, Inc. (www.steptools.com) 
 */

FILE_DESCRIPTION(
/* description */ (''),
/* implementation_level */ '2;1');

FILE_NAME(
/* name */ 'D:\\\X2\96F64EF6\X0\\\M6\X2\7CFB5217\X0\\\\X2\914D4EF6\X0\\\
DSP\\DSP2555-6.stp',
/* time_stamp */ '2025-03-26T16:52:19+08:00',
/* author */ ('1091212-1'),
/* organization */ (''),
/* preprocessor_version */ 'ST-DEVELOPER v15.6',
/* originating_system */ 'Autodesk Inventor 2015',
/* authorisation */ '');

FILE_SCHEMA (('AUTOMOTIVE_DESIGN { 1 0 10303 214 3 1 1 }'));
ENDSEC;

DATA;
#10=MECHANICAL_DESIGN_GEOMETRIC_PRESENTATION_REPRESENTATION('',(#13),#591);
#11=SHAPE_REPRESENTATION_RELATIONSHIP('SRR','None',#600,#12);
#12=ADVANCED_BREP_SHAPE_REPRESENTATION($,(#14),#590);
#13=STYLED_ITEM('',(#609),#14);
#14=MANIFOLD_SOLID_BREP('\X2\5BE69AD4\X0\1',#351);
#15=FACE_BOUND('',#50,.T.);
#16=FACE_BOUND('',#51,.T.);
#17=FACE_BOUND('',#67,.T.);
#18=FACE_BOUND('',#68,.T.);
#19=PLANE('',#356);
#20=PLANE('',#357);
#21=PLANE('',#367);
#22=PLANE('',#374);
#23=PLANE('',#377);
#24=PLANE('',#380);
#25=PLANE('',#383);
#26=PLANE('',#384);
#27=PLANE('',#385);
#28=PLANE('',#386);
#29=FACE_OUTER_BOUND('',#47,.T.);
#30=FACE_OUTER_BOUND('',#48,.T.);
#31=FACE_OUTER_BOUND('',#49,.T.);
#32=FACE_OUTER_BOUND('',#52,.T.);
#33=FACE_OUTER_BOUND('',#53,.T.);
#34=FACE_OUTER_BOUND('',#54,.T.);
#35=FACE_OUTER_BOUND('',#55,.T.);
#36=FACE_OUTER_BOUND('',#56,.T.);
#37=FACE_OUTER_BOUND('',#57,.T.);
#38=FACE_OUTER_BOUND('',#58,.T.);
#39=FACE_OUTER_BOUND('',#59,.T.);
#40=FACE_OUTER_BOUND('',#60,.T.);
#41=FACE_OUTER_BOUND('',#61,.T.);
#42=FACE_OUTER_BOUND('',#62,.T.);
#43=FACE_OUTER_BOUND('',#63,.T.);
#44=FACE_OUTER_BOUND('',#64,.T.);
#45=FACE_OUTER_BOUND('',#65,.T.);
#46=FACE_OUTER_BOUND('',#66,.T.);
#47=EDGE_LOOP('',(#229,#230,#231,#232));
#48=EDGE_LOOP('',(#233,#234,#235,#236));
#49=EDGE_LOOP('',(#237,#238,#239,#240,#241,#242,#243,#244));
#50=EDGE_LOOP('',(#245,#246,#247,#248));
#51=EDGE_LOOP('',(#249,#250,#251,#252));
#52=EDGE_LOOP('',(#253,#254,#255,#256));
#53=EDGE_LOOP('',(#257,#258,#259,#260));
#54=EDGE_LOOP('',(#261,#262,#263,#264));
#55=EDGE_LOOP('',(#265,#266,#267,#268));
#56=EDGE_LOOP('',(#269,#270,#271,#272));
#57=EDGE_LOOP('',(#273,#274,#275,#276));
#58=EDGE_LOOP('',(#277,#278,#279,#280));
#59=EDGE_LOOP('',(#281,#282,#283,#284));
#60=EDGE_LOOP('',(#285,#286,#287,#288));
#61=EDGE_LOOP('',(#289,#290,#291,#292));
#62=EDGE_LOOP('',(#293,#294,#295,#296));
#63=EDGE_LOOP('',(#297,#298,#299,#300));
#64=EDGE_LOOP('',(#301,#302,#303,#304));
#65=EDGE_LOOP('',(#305,#306,#307,#308));
#66=EDGE_LOOP('',(#309,#310,#311,#312,#313,#314,#315,#316));
#67=EDGE_LOOP('',(#317,#318,#319,#320));
#68=EDGE_LOOP('',(#321,#322,#323,#324));
#69=LINE('',#495,#101);
#70=LINE('',#498,#102);
#71=LINE('',#501,#103);
#72=LINE('',#503,#104);
#73=LINE('',#504,#105);
#74=LINE('',#507,#106);
#75=LINE('',#511,#107);
#76=LINE('',#515,#108);
#77=LINE('',#521,#109);
#78=LINE('',#524,#110);
#79=LINE('',#529,#111);
#80=LINE('',#532,#112);
#81=LINE('',#537,#113);
#82=LINE('',#538,#114);
#83=LINE('',#541,#115);
#84=LINE('',#542,#116);
#85=LINE('',#546,#117);
#86=LINE('',#550,#118);
#87=LINE('',#553,#119);
#88=LINE('',#556,#120);
#89=LINE('',#559,#121);
#90=LINE('',#560,#122);
#91=LINE('',#563,#123);
#92=LINE('',#566,#124);
#93=LINE('',#569,#125);
#94=LINE('',#572,#126);
#95=LINE('',#575,#127);
#96=LINE('',#576,#128);
#97=LINE('',#579,#129);
#98=LINE('',#582,#130);
#99=LINE('',#584,#131);
#100=LINE('',#586,#132);
#101=VECTOR('',#393,3.2);
#102=VECTOR('',#396,3.2);
#103=VECTOR('',#399,21.);
#104=VECTOR('',#400,3.2);
#105=VECTOR('',#401,21.);
#106=VECTOR('',#404,51.);
#107=VECTOR('',#407,21.);
#108=VECTOR('',#410,51.);
#109=VECTOR('',#415,6.);
#110=VECTOR('',#418,6.);
#111=VECTOR('',#421,6.);
#112=VECTOR('',#424,6.);
#113=VECTOR('',#429,3.2);
#114=VECTOR('',#430,3.2);
#115=VECTOR('',#433,21.);
#116=VECTOR('',#434,3.2);
#117=VECTOR('',#439,3.2);
#118=VECTOR('',#444,3.2);
#119=VECTOR('',#447,3.2);
#120=VECTOR('',#450,3.2);
#121=VECTOR('',#453,3.2);
#122=VECTOR('',#454,6.);
#123=VECTOR('',#457,3.2);
#124=VECTOR('',#462,6.);
#125=VECTOR('',#465,3.2);
#126=VECTOR('',#468,3.2);
#127=VECTOR('',#471,3.2);
#128=VECTOR('',#472,6.);
#129=VECTOR('',#475,3.2);
#130=VECTOR('',#480,6.);
#131=VECTOR('',#483,51.);
#132=VECTOR('',#486,51.);
#133=CIRCLE('',#354,2.);
#134=CIRCLE('',#355,2.);
#135=CIRCLE('',#358,2.);
#136=CIRCLE('',#359,2.);
#137=CIRCLE('',#360,2.);
#138=CIRCLE('',#361,3.5);
#139=CIRCLE('',#362,3.5);
#140=CIRCLE('',#363,3.5);
#141=CIRCLE('',#364,3.5);
#142=CIRCLE('',#366,2.);
#143=CIRCLE('',#369,2.);
#144=CIRCLE('',#371,2.);
#145=CIRCLE('',#373,3.5);
#146=CIRCLE('',#376,3.5);
#147=CIRCLE('',#379,3.5);
#148=CIRCLE('',#382,3.5);
#149=VERTEX_POINT('',#491);
#150=VERTEX_POINT('',#492);
#151=VERTEX_POINT('',#494);
#152=VERTEX_POINT('',#496);
#153=VERTEX_POINT('',#500);
#154=VERTEX_POINT('',#502);
#155=VERTEX_POINT('',#506);
#156=VERTEX_POINT('',#508);
#157=VERTEX_POINT('',#510);
#158=VERTEX_POINT('',#512);
#159=VERTEX_POINT('',#514);
#160=VERTEX_POINT('',#517);
#161=VERTEX_POINT('',#518);
#162=VERTEX_POINT('',#520);
#163=VERTEX_POINT('',#522);
#164=VERTEX_POINT('',#525);
#165=VERTEX_POINT('',#526);
#166=VERTEX_POINT('',#528);
#167=VERTEX_POINT('',#530);
#168=VERTEX_POINT('',#534);
#169=VERTEX_POINT('',#535);
#170=VERTEX_POINT('',#540);
#171=VERTEX_POINT('',#544);
#172=VERTEX_POINT('',#548);
#173=VERTEX_POINT('',#552);
#174=VERTEX_POINT('',#554);
#175=VERTEX_POINT('',#558);
#176=VERTEX_POINT('',#562);
#177=VERTEX_POINT('',#568);
#178=VERTEX_POINT('',#570);
#179=VERTEX_POINT('',#574);
#180=VERTEX_POINT('',#578);
#181=EDGE_CURVE('',#149,#150,#133,.T.);
#182=EDGE_CURVE('',#150,#151,#69,.T.);
#183=EDGE_CURVE('',#151,#152,#134,.T.);
#184=EDGE_CURVE('',#152,#149,#70,.T.);
#185=EDGE_CURVE('',#153,#152,#71,.T.);
#186=EDGE_CURVE('',#154,#153,#72,.T.);
#187=EDGE_CURVE('',#149,#154,#73,.T.);
#188=EDGE_CURVE('',#151,#155,#74,.T.);
#189=EDGE_CURVE('',#156,#155,#135,.T.);
#190=EDGE_CURVE('',#156,#157,#75,.T.);
#191=EDGE_CURVE('',#158,#157,#136,.T.);
#192=EDGE_CURVE('',#158,#159,#76,.T.);
#193=EDGE_CURVE('',#153,#159,#137,.T.);
#194=EDGE_CURVE('',#160,#161,#138,.T.);
#195=EDGE_CURVE('',#161,#162,#77,.T.);
#196=EDGE_CURVE('',#162,#163,#139,.T.);
#197=EDGE_CURVE('',#163,#160,#78,.T.);
#198=EDGE_CURVE('',#164,#165,#140,.T.);
#199=EDGE_CURVE('',#165,#166,#79,.T.);
#200=EDGE_CURVE('',#166,#167,#141,.T.);
#201=EDGE_CURVE('',#167,#164,#80,.T.);
#202=EDGE_CURVE('',#168,#169,#142,.T.);
#203=EDGE_CURVE('',#169,#156,#81,.T.);
#204=EDGE_CURVE('',#155,#168,#82,.T.);
#205=EDGE_CURVE('',#170,#169,#83,.T.);
#206=EDGE_CURVE('',#157,#170,#84,.T.);
#207=EDGE_CURVE('',#170,#171,#143,.T.);
#208=EDGE_CURVE('',#171,#158,#85,.T.);
#209=EDGE_CURVE('',#172,#154,#144,.T.);
#210=EDGE_CURVE('',#159,#172,#86,.T.);
#211=EDGE_CURVE('',#160,#173,#87,.T.);
#212=EDGE_CURVE('',#174,#173,#145,.T.);
#213=EDGE_CURVE('',#161,#174,#88,.T.);
#214=EDGE_CURVE('',#163,#175,#89,.T.);
#215=EDGE_CURVE('',#173,#175,#90,.T.);
#216=EDGE_CURVE('',#162,#176,#91,.T.);
#217=EDGE_CURVE('',#175,#176,#146,.T.);
#218=EDGE_CURVE('',#176,#174,#92,.T.);
#219=EDGE_CURVE('',#164,#177,#93,.T.);
#220=EDGE_CURVE('',#178,#177,#147,.T.);
#221=EDGE_CURVE('',#165,#178,#94,.T.);
#222=EDGE_CURVE('',#167,#179,#95,.T.);
#223=EDGE_CURVE('',#177,#179,#96,.T.);
#224=EDGE_CURVE('',#166,#180,#97,.T.);
#225=EDGE_CURVE('',#179,#180,#148,.T.);
#226=EDGE_CURVE('',#180,#178,#98,.T.);
#227=EDGE_CURVE('',#172,#171,#99,.T.);
#228=EDGE_CURVE('',#168,#150,#100,.T.);
#229=ORIENTED_EDGE('',*,*,#181,.T.);
#230=ORIENTED_EDGE('',*,*,#182,.T.);
#231=ORIENTED_EDGE('',*,*,#183,.T.);
#232=ORIENTED_EDGE('',*,*,#184,.T.);
#233=ORIENTED_EDGE('',*,*,#184,.F.);
#234=ORIENTED_EDGE('',*,*,#185,.F.);
#235=ORIENTED_EDGE('',*,*,#186,.F.);
#236=ORIENTED_EDGE('',*,*,#187,.F.);
#237=ORIENTED_EDGE('',*,*,#183,.F.);
#238=ORIENTED_EDGE('',*,*,#188,.T.);
#239=ORIENTED_EDGE('',*,*,#189,.F.);
#240=ORIENTED_EDGE('',*,*,#190,.T.);
#241=ORIENTED_EDGE('',*,*,#191,.F.);
#242=ORIENTED_EDGE('',*,*,#192,.T.);
#243=ORIENTED_EDGE('',*,*,#193,.F.);
#244=ORIENTED_EDGE('',*,*,#185,.T.);
#245=ORIENTED_EDGE('',*,*,#194,.T.);
#246=ORIENTED_EDGE('',*,*,#195,.T.);
#247=ORIENTED_EDGE('',*,*,#196,.T.);
#248=ORIENTED_EDGE('',*,*,#197,.T.);
#249=ORIENTED_EDGE('',*,*,#198,.T.);
#250=ORIENTED_EDGE('',*,*,#199,.T.);
#251=ORIENTED_EDGE('',*,*,#200,.T.);
#252=ORIENTED_EDGE('',*,*,#201,.T.);
#253=ORIENTED_EDGE('',*,*,#202,.T.);
#254=ORIENTED_EDGE('',*,*,#203,.T.);
#255=ORIENTED_EDGE('',*,*,#189,.T.);
#256=ORIENTED_EDGE('',*,*,#204,.T.);
#257=ORIENTED_EDGE('',*,*,#203,.F.);
#258=ORIENTED_EDGE('',*,*,#205,.F.);
#259=ORIENTED_EDGE('',*,*,#206,.F.);
#260=ORIENTED_EDGE('',*,*,#190,.F.);
#261=ORIENTED_EDGE('',*,*,#207,.T.);
#262=ORIENTED_EDGE('',*,*,#208,.T.);
#263=ORIENTED_EDGE('',*,*,#191,.T.);
#264=ORIENTED_EDGE('',*,*,#206,.T.);
#265=ORIENTED_EDGE('',*,*,#209,.T.);
#266=ORIENTED_EDGE('',*,*,#186,.T.);
#267=ORIENTED_EDGE('',*,*,#193,.T.);
#268=ORIENTED_EDGE('',*,*,#210,.T.);
#269=ORIENTED_EDGE('',*,*,#194,.F.);
#270=ORIENTED_EDGE('',*,*,#211,.T.);
#271=ORIENTED_EDGE('',*,*,#212,.F.);
#272=ORIENTED_EDGE('',*,*,#213,.F.);
#273=ORIENTED_EDGE('',*,*,#197,.F.);
#274=ORIENTED_EDGE('',*,*,#214,.T.);
#275=ORIENTED_EDGE('',*,*,#215,.F.);
#276=ORIENTED_EDGE('',*,*,#211,.F.);
#277=ORIENTED_EDGE('',*,*,#196,.F.);
#278=ORIENTED_EDGE('',*,*,#216,.T.);
#279=ORIENTED_EDGE('',*,*,#217,.F.);
#280=ORIENTED_EDGE('',*,*,#214,.F.);
#281=ORIENTED_EDGE('',*,*,#195,.F.);
#282=ORIENTED_EDGE('',*,*,#213,.T.);
#283=ORIENTED_EDGE('',*,*,#218,.F.);
#284=ORIENTED_EDGE('',*,*,#216,.F.);
#285=ORIENTED_EDGE('',*,*,#198,.F.);
#286=ORIENTED_EDGE('',*,*,#219,.T.);
#287=ORIENTED_EDGE('',*,*,#220,.F.);
#288=ORIENTED_EDGE('',*,*,#221,.F.);
#289=ORIENTED_EDGE('',*,*,#201,.F.);
#290=ORIENTED_EDGE('',*,*,#222,.T.);
#291=ORIENTED_EDGE('',*,*,#223,.F.);
#292=ORIENTED_EDGE('',*,*,#219,.F.);
#293=ORIENTED_EDGE('',*,*,#200,.F.);
#294=ORIENTED_EDGE('',*,*,#224,.T.);
#295=ORIENTED_EDGE('',*,*,#225,.F.);
#296=ORIENTED_EDGE('',*,*,#222,.F.);
#297=ORIENTED_EDGE('',*,*,#199,.F.);
#298=ORIENTED_EDGE('',*,*,#221,.T.);
#299=ORIENTED_EDGE('',*,*,#226,.F.);
#300=ORIENTED_EDGE('',*,*,#224,.F.);
#301=ORIENTED_EDGE('',*,*,#208,.F.);
#302=ORIENTED_EDGE('',*,*,#227,.F.);
#303=ORIENTED_EDGE('',*,*,#210,.F.);
#304=ORIENTED_EDGE('',*,*,#192,.F.);
#305=ORIENTED_EDGE('',*,*,#182,.F.);
#306=ORIENTED_EDGE('',*,*,#228,.F.);
#307=ORIENTED_EDGE('',*,*,#204,.F.);
#308=ORIENTED_EDGE('',*,*,#188,.F.);
#309=ORIENTED_EDGE('',*,*,#181,.F.);
#310=ORIENTED_EDGE('',*,*,#187,.T.);
#311=ORIENTED_EDGE('',*,*,#209,.F.);
#312=ORIENTED_EDGE('',*,*,#227,.T.);
#313=ORIENTED_EDGE('',*,*,#207,.F.);
#314=ORIENTED_EDGE('',*,*,#205,.T.);
#315=ORIENTED_EDGE('',*,*,#202,.F.);
#316=ORIENTED_EDGE('',*,*,#228,.T.);
#317=ORIENTED_EDGE('',*,*,#212,.T.);
#318=ORIENTED_EDGE('',*,*,#215,.T.);
#319=ORIENTED_EDGE('',*,*,#217,.T.);
#320=ORIENTED_EDGE('',*,*,#218,.T.);
#321=ORIENTED_EDGE('',*,*,#220,.T.);
#322=ORIENTED_EDGE('',*,*,#223,.T.);
#323=ORIENTED_EDGE('',*,*,#225,.T.);
#324=ORIENTED_EDGE('',*,*,#226,.T.);
#325=CYLINDRICAL_SURFACE('',#353,2.);
#326=CYLINDRICAL_SURFACE('',#365,2.);
#327=CYLINDRICAL_SURFACE('',#368,2.);
#328=CYLINDRICAL_SURFACE('',#370,2.);
#329=CYLINDRICAL_SURFACE('',#372,3.5);
#330=CYLINDRICAL_SURFACE('',#375,3.5);
#331=CYLINDRICAL_SURFACE('',#378,3.5);
#332=CYLINDRICAL_SURFACE('',#381,3.5);
#333=ADVANCED_FACE('',(#29),#325,.T.);
#334=ADVANCED_FACE('',(#30),#19,.T.);
#335=ADVANCED_FACE('',(#31,#15,#16),#20,.F.);
#336=ADVANCED_FACE('',(#32),#326,.T.);
#337=ADVANCED_FACE('',(#33),#21,.T.);
#338=ADVANCED_FACE('',(#34),#327,.T.);
#339=ADVANCED_FACE('',(#35),#328,.T.);
#340=ADVANCED_FACE('',(#36),#329,.F.);
#341=ADVANCED_FACE('',(#37),#22,.F.);
#342=ADVANCED_FACE('',(#38),#330,.F.);
#343=ADVANCED_FACE('',(#39),#23,.F.);
#344=ADVANCED_FACE('',(#40),#331,.F.);
#345=ADVANCED_FACE('',(#41),#24,.F.);
#346=ADVANCED_FACE('',(#42),#332,.F.);
#347=ADVANCED_FACE('',(#43),#25,.F.);
#348=ADVANCED_FACE('',(#44),#26,.T.);
#349=ADVANCED_FACE('',(#45),#27,.T.);
#350=ADVANCED_FACE('',(#46,#17,#18),#28,.T.);
#351=CLOSED_SHELL('',(#333,#334,#335,#336,#337,#338,#339,#340,#341,#342,
#343,#344,#345,#346,#347,#348,#349,#350));
#352=AXIS2_PLACEMENT_3D('placement',#489,#387,#388);
#353=AXIS2_PLACEMENT_3D('',#490,#389,#390);
#354=AXIS2_PLACEMENT_3D('',#493,#391,#392);
#355=AXIS2_PLACEMENT_3D('',#497,#394,#395);
#356=AXIS2_PLACEMENT_3D('',#499,#397,#398);
#357=AXIS2_PLACEMENT_3D('',#505,#402,#403);
#358=AXIS2_PLACEMENT_3D('',#509,#405,#406);
#359=AXIS2_PLACEMENT_3D('',#513,#408,#409);
#360=AXIS2_PLACEMENT_3D('',#516,#411,#412);
#361=AXIS2_PLACEMENT_3D('',#519,#413,#414);
#362=AXIS2_PLACEMENT_3D('',#523,#416,#417);
#363=AXIS2_PLACEMENT_3D('',#527,#419,#420);
#364=AXIS2_PLACEMENT_3D('',#531,#422,#423);
#365=AXIS2_PLACEMENT_3D('',#533,#425,#426);
#366=AXIS2_PLACEMENT_3D('',#536,#427,#428);
#367=AXIS2_PLACEMENT_3D('',#539,#431,#432);
#368=AXIS2_PLACEMENT_3D('',#543,#435,#436);
#369=AXIS2_PLACEMENT_3D('',#545,#437,#438);
#370=AXIS2_PLACEMENT_3D('',#547,#440,#441);
#371=AXIS2_PLACEMENT_3D('',#549,#442,#443);
#372=AXIS2_PLACEMENT_3D('',#551,#445,#446);
#373=AXIS2_PLACEMENT_3D('',#555,#448,#449);
#374=AXIS2_PLACEMENT_3D('',#557,#451,#452);
#375=AXIS2_PLACEMENT_3D('',#561,#455,#456);
#376=AXIS2_PLACEMENT_3D('',#564,#458,#459);
#377=AXIS2_PLACEMENT_3D('',#565,#460,#461);
#378=AXIS2_PLACEMENT_3D('',#567,#463,#464);
#379=AXIS2_PLACEMENT_3D('',#571,#466,#467);
#380=AXIS2_PLACEMENT_3D('',#573,#469,#470);
#381=AXIS2_PLACEMENT_3D('',#577,#473,#474);
#382=AXIS2_PLACEMENT_3D('',#580,#476,#477);
#383=AXIS2_PLACEMENT_3D('',#581,#478,#479);
#384=AXIS2_PLACEMENT_3D('',#583,#481,#482);
#385=AXIS2_PLACEMENT_3D('',#585,#484,#485);
#386=AXIS2_PLACEMENT_3D('',#587,#487,#488);
#387=DIRECTION('axis',(0.,0.,1.));
#388=DIRECTION('refdir',(1.,0.,0.));
#389=DIRECTION('center_axis',(0.,0.,1.));
#390=DIRECTION('ref_axis',(0.707106781186548,-0.707106781186548,0.));
#391=DIRECTION('center_axis',(0.,0.,-1.));
#392=DIRECTION('ref_axis',(0.707106781186548,-0.707106781186548,0.));
#393=DIRECTION('',(0.,0.,-1.));
#394=DIRECTION('center_axis',(0.,0.,1.));
#395=DIRECTION('ref_axis',(0.707106781186548,-0.707106781186548,0.));
#396=DIRECTION('',(0.,0.,1.));
#397=DIRECTION('center_axis',(1.,0.,0.));
#398=DIRECTION('ref_axis',(0.,1.,0.));
#399=DIRECTION('',(0.,-1.,0.));
#400=DIRECTION('',(0.,0.,-1.));
#401=DIRECTION('',(0.,1.,0.));
#402=DIRECTION('center_axis',(0.,0.,1.));
#403=DIRECTION('ref_axis',(1.,0.,0.));
#404=DIRECTION('',(-1.,0.,0.));
#405=DIRECTION('center_axis',(0.,0.,1.));
#406=DIRECTION('ref_axis',(-0.707106781186548,-0.707106781186548,0.));
#407=DIRECTION('',(0.,1.,0.));
#408=DIRECTION('center_axis',(0.,0.,1.));
#409=DIRECTION('ref_axis',(-0.707106781186548,0.707106781186548,0.));
#410=DIRECTION('',(1.,0.,0.));
#411=DIRECTION('center_axis',(0.,0.,1.));
#412=DIRECTION('ref_axis',(0.707106781186548,0.707106781186548,0.));
#413=DIRECTION('center_axis',(0.,0.,1.));
#414=DIRECTION('ref_axis',(0.,-1.,0.));
#415=DIRECTION('',(-1.,3.70074341541719E-16,0.));
#416=DIRECTION('center_axis',(0.,0.,1.));
#417=DIRECTION('ref_axis',(6.34413156928661E-16,1.,0.));
#418=DIRECTION('',(1.,-1.85037170770859E-16,0.));
#419=DIRECTION('center_axis',(0.,0.,1.));
#420=DIRECTION('ref_axis',(0.,1.,0.));
#421=DIRECTION('',(-1.,-3.70074341541719E-16,0.));
#422=DIRECTION('center_axis',(0.,0.,1.));
#423=DIRECTION('ref_axis',(6.34413156928661E-16,-1.,0.));
#424=DIRECTION('',(1.,1.85037170770859E-16,0.));
#425=DIRECTION('center_axis',(0.,0.,1.));
#426=DIRECTION('ref_axis',(-0.707106781186548,-0.707106781186548,0.));
#427=DIRECTION('center_axis',(0.,0.,-1.));
#428=DIRECTION('ref_axis',(-0.707106781186548,-0.707106781186548,0.));
#429=DIRECTION('',(0.,0.,-1.));
#430=DIRECTION('',(0.,0.,1.));
#431=DIRECTION('center_axis',(-1.,0.,0.));
#432=DIRECTION('ref_axis',(0.,-1.,0.));
#433=DIRECTION('',(0.,-1.,0.));
#434=DIRECTION('',(0.,0.,1.));
#435=DIRECTION('center_axis',(0.,0.,1.));
#436=DIRECTION('ref_axis',(-0.707106781186548,0.707106781186548,0.));
#437=DIRECTION('center_axis',(0.,0.,-1.));
#438=DIRECTION('ref_axis',(-0.707106781186548,0.707106781186548,0.));
#439=DIRECTION('',(0.,0.,-1.));
#440=DIRECTION('center_axis',(0.,0.,1.));
#441=DIRECTION('ref_axis',(0.707106781186548,0.707106781186548,0.));
#442=DIRECTION('center_axis',(0.,0.,-1.));
#443=DIRECTION('ref_axis',(0.707106781186548,0.707106781186548,0.));
#444=DIRECTION('',(0.,0.,1.));
#445=DIRECTION('center_axis',(0.,0.,1.));
#446=DIRECTION('ref_axis',(0.,-1.,0.));
#447=DIRECTION('',(0.,0.,1.));
#448=DIRECTION('center_axis',(0.,0.,-1.));
#449=DIRECTION('ref_axis',(0.,-1.,0.));
#450=DIRECTION('',(0.,0.,1.));
#451=DIRECTION('center_axis',(-1.85037170770859E-16,-1.,0.));
#452=DIRECTION('ref_axis',(1.,-1.77635683940025E-16,0.));
#453=DIRECTION('',(0.,0.,1.));
#454=DIRECTION('',(-1.,1.85037170770859E-16,0.));
#455=DIRECTION('center_axis',(0.,0.,1.));
#456=DIRECTION('ref_axis',(6.34413156928661E-16,1.,0.));
#457=DIRECTION('',(0.,0.,1.));
#458=DIRECTION('center_axis',(0.,0.,-1.));
#459=DIRECTION('ref_axis',(6.34413156928661E-16,1.,0.));
#460=DIRECTION('center_axis',(3.70074341541719E-16,1.,0.));
#461=DIRECTION('ref_axis',(-1.,3.5527136788005E-16,0.));
#462=DIRECTION('',(1.,-3.70074341541719E-16,0.));
#463=DIRECTION('center_axis',(0.,0.,1.));
#464=DIRECTION('ref_axis',(0.,1.,0.));
#465=DIRECTION('',(0.,0.,1.));
#466=DIRECTION('center_axis',(0.,0.,-1.));
#467=DIRECTION('ref_axis',(0.,1.,0.));
#468=DIRECTION('',(0.,0.,1.));
#469=DIRECTION('center_axis',(1.85037170770859E-16,-1.,0.));
#470=DIRECTION('ref_axis',(1.,1.77635683940025E-16,0.));
#471=DIRECTION('',(0.,0.,1.));
#472=DIRECTION('',(-1.,-1.85037170770859E-16,0.));
#473=DIRECTION('center_axis',(0.,0.,1.));
#474=DIRECTION('ref_axis',(6.34413156928661E-16,-1.,0.));
#475=DIRECTION('',(0.,0.,1.));
#476=DIRECTION('center_axis',(0.,0.,-1.));
#477=DIRECTION('ref_axis',(6.34413156928661E-16,-1.,0.));
#478=DIRECTION('center_axis',(-3.70074341541719E-16,1.,0.));
#479=DIRECTION('ref_axis',(-1.,-3.5527136788005E-16,0.));
#480=DIRECTION('',(1.,3.70074341541719E-16,0.));
#481=DIRECTION('center_axis',(0.,1.,0.));
#482=DIRECTION('ref_axis',(-1.,0.,0.));
#483=DIRECTION('',(-1.,0.,0.));
#484=DIRECTION('center_axis',(0.,-1.,0.));
#485=DIRECTION('ref_axis',(1.,0.,0.));
#486=DIRECTION('',(1.,0.,0.));
#487=DIRECTION('center_axis',(0.,0.,1.));
#488=DIRECTION('ref_axis',(1.,0.,0.));
#489=CARTESIAN_POINT('',(0.,0.,0.));
#490=CARTESIAN_POINT('Origin',(25.5,-10.5,0.));
#491=CARTESIAN_POINT('',(27.5,-10.5,3.2));
#492=CARTESIAN_POINT('',(25.5,-12.5,3.2));
#493=CARTESIAN_POINT('Origin',(25.5,-10.5,3.2));
#494=CARTESIAN_POINT('',(25.5,-12.5,0.));
#495=CARTESIAN_POINT('',(25.5,-12.5,0.));
#496=CARTESIAN_POINT('',(27.5,-10.5,0.));
#497=CARTESIAN_POINT('Origin',(25.5,-10.5,0.));
#498=CARTESIAN_POINT('',(27.5,-10.5,0.));
#499=CARTESIAN_POINT('Origin',(27.5,-12.5,0.));
#500=CARTESIAN_POINT('',(27.5,10.5,0.));
#501=CARTESIAN_POINT('',(27.5,12.5,0.));
#502=CARTESIAN_POINT('',(27.5,10.5,3.2));
#503=CARTESIAN_POINT('',(27.5,10.5,0.));
#504=CARTESIAN_POINT('',(27.5,12.5,3.2));
#505=CARTESIAN_POINT('Origin',(0.,0.,0.));
#506=CARTESIAN_POINT('',(-25.5,-12.5,0.));
#507=CARTESIAN_POINT('',(27.5,-12.5,0.));
#508=CARTESIAN_POINT('',(-27.5,-10.5,0.));
#509=CARTESIAN_POINT('Origin',(-25.5,-10.5,0.));
#510=CARTESIAN_POINT('',(-27.5,10.5,0.));
#511=CARTESIAN_POINT('',(-27.5,-12.5,0.));
#512=CARTESIAN_POINT('',(-25.5,12.5,0.));
#513=CARTESIAN_POINT('Origin',(-25.5,10.5,0.));
#514=CARTESIAN_POINT('',(25.5,12.5,0.));
#515=CARTESIAN_POINT('',(-27.5,12.5,0.));
#516=CARTESIAN_POINT('Origin',(25.5,10.5,0.));
#517=CARTESIAN_POINT('',(-11.5,-3.5,0.));
#518=CARTESIAN_POINT('',(-11.5,3.5,0.));
#519=CARTESIAN_POINT('Origin',(-11.5,-6.96489290133317E-16,0.));
#520=CARTESIAN_POINT('',(-17.5,3.5,0.));
#521=CARTESIAN_POINT('',(-5.75,3.5,0.));
#522=CARTESIAN_POINT('',(-17.5,-3.5,0.));
#523=CARTESIAN_POINT('Origin',(-17.5,7.73086868843506E-16,0.));
#524=CARTESIAN_POINT('',(-8.75,-3.5,0.));
#525=CARTESIAN_POINT('',(17.5,-3.5,0.));
#526=CARTESIAN_POINT('',(17.5,3.5,0.));
#527=CARTESIAN_POINT('Origin',(17.5,7.73086868843506E-16,0.));
#528=CARTESIAN_POINT('',(11.5,3.5,0.));
#529=CARTESIAN_POINT('',(8.75,3.5,0.));
#530=CARTESIAN_POINT('',(11.5,-3.5,0.));
#531=CARTESIAN_POINT('Origin',(11.5,-6.96489290133317E-16,0.));
#532=CARTESIAN_POINT('',(5.75,-3.5,0.));
#533=CARTESIAN_POINT('Origin',(-25.5,-10.5,0.));
#534=CARTESIAN_POINT('',(-25.5,-12.5,3.2));
#535=CARTESIAN_POINT('',(-27.5,-10.5,3.2));
#536=CARTESIAN_POINT('Origin',(-25.5,-10.5,3.2));
#537=CARTESIAN_POINT('',(-27.5,-10.5,0.));
#538=CARTESIAN_POINT('',(-25.5,-12.5,0.));
#539=CARTESIAN_POINT('Origin',(-27.5,12.5,0.));
#540=CARTESIAN_POINT('',(-27.5,10.5,3.2));
#541=CARTESIAN_POINT('',(-27.5,-12.5,3.2));
#542=CARTESIAN_POINT('',(-27.5,10.5,0.));
#543=CARTESIAN_POINT('Origin',(-25.5,10.5,0.));
#544=CARTESIAN_POINT('',(-25.5,12.5,3.2));
#545=CARTESIAN_POINT('Origin',(-25.5,10.5,3.2));
#546=CARTESIAN_POINT('',(-25.5,12.5,0.));
#547=CARTESIAN_POINT('Origin',(25.5,10.5,0.));
#548=CARTESIAN_POINT('',(25.5,12.5,3.2));
#549=CARTESIAN_POINT('Origin',(25.5,10.5,3.2));
#550=CARTESIAN_POINT('',(25.5,12.5,0.));
#551=CARTESIAN_POINT('Origin',(-11.5,-6.96489290133317E-16,0.));
#552=CARTESIAN_POINT('',(-11.5,-3.5,3.2));
#553=CARTESIAN_POINT('',(-11.5,-3.5,0.));
#554=CARTESIAN_POINT('',(-11.5,3.5,3.2));
#555=CARTESIAN_POINT('Origin',(-11.5,-6.96489290133317E-16,3.2));
#556=CARTESIAN_POINT('',(-11.5,3.5,0.));
#557=CARTESIAN_POINT('Origin',(-17.5,-3.5,0.));
#558=CARTESIAN_POINT('',(-17.5,-3.5,3.2));
#559=CARTESIAN_POINT('',(-17.5,-3.5,0.));
#560=CARTESIAN_POINT('',(-8.75,-3.5,3.2));
#561=CARTESIAN_POINT('Origin',(-17.5,7.73086868843506E-16,0.));
#562=CARTESIAN_POINT('',(-17.5,3.5,3.2));
#563=CARTESIAN_POINT('',(-17.5,3.5,0.));
#564=CARTESIAN_POINT('Origin',(-17.5,7.73086868843506E-16,3.2));
#565=CARTESIAN_POINT('Origin',(-11.5,3.5,0.));
#566=CARTESIAN_POINT('',(-5.75,3.5,3.2));
#567=CARTESIAN_POINT('Origin',(17.5,7.73086868843506E-16,0.));
#568=CARTESIAN_POINT('',(17.5,-3.5,3.2));
#569=CARTESIAN_POINT('',(17.5,-3.5,0.));
#570=CARTESIAN_POINT('',(17.5,3.5,3.2));
#571=CARTESIAN_POINT('Origin',(17.5,7.73086868843506E-16,3.2));
#572=CARTESIAN_POINT('',(17.5,3.5,0.));
#573=CARTESIAN_POINT('Origin',(11.5,-3.5,0.));
#574=CARTESIAN_POINT('',(11.5,-3.5,3.2));
#575=CARTESIAN_POINT('',(11.5,-3.5,0.));
#576=CARTESIAN_POINT('',(5.75,-3.5,3.2));
#577=CARTESIAN_POINT('Origin',(11.5,-6.96489290133317E-16,0.));
#578=CARTESIAN_POINT('',(11.5,3.5,3.2));
#579=CARTESIAN_POINT('',(11.5,3.5,0.));
#580=CARTESIAN_POINT('Origin',(11.5,-6.96489290133317E-16,3.2));
#581=CARTESIAN_POINT('Origin',(17.5,3.5,0.));
#582=CARTESIAN_POINT('',(8.75,3.5,3.2));
#583=CARTESIAN_POINT('Origin',(27.5,12.5,0.));
#584=CARTESIAN_POINT('',(-27.5,12.5,3.2));
#585=CARTESIAN_POINT('Origin',(-27.5,-12.5,0.));
#586=CARTESIAN_POINT('',(27.5,-12.5,3.2));
#587=CARTESIAN_POINT('Origin',(0.,0.,3.2));
#588=UNCERTAINTY_MEASURE_WITH_UNIT(LENGTH_MEASURE(0.01),#592,
'DISTANCE_ACCURACY_VALUE',
'Maximum model space distance between geometric entities at asserted c
onnectivities');
#589=UNCERTAINTY_MEASURE_WITH_UNIT(LENGTH_MEASURE(1.E-6),#592,
'DISTANCE_ACCURACY_VALUE',
'Maximum model space distance between geometric entities at asserted c
onnectivities');
#590=(
GEOMETRIC_REPRESENTATION_CONTEXT(3)
GLOBAL_UNCERTAINTY_ASSIGNED_CONTEXT((#588))
GLOBAL_UNIT_ASSIGNED_CONTEXT((#592,#595,#593))
REPRESENTATION_CONTEXT('','3D')
);
#591=(
GEOMETRIC_REPRESENTATION_CONTEXT(3)
GLOBAL_UNCERTAINTY_ASSIGNED_CONTEXT((#589))
GLOBAL_UNIT_ASSIGNED_CONTEXT((#592,#595,#593))
REPRESENTATION_CONTEXT('','3D')
);
#592=(
LENGTH_UNIT()
NAMED_UNIT(*)
SI_UNIT(.MILLI.,.METRE.)
);
#593=(
NAMED_UNIT(*)
SI_UNIT($,.STERADIAN.)
SOLID_ANGLE_UNIT()
);
#594=DIMENSIONAL_EXPONENTS(0.,0.,0.,0.,0.,0.,0.);
#595=(
CONVERSION_BASED_UNIT('degree',#597)
NAMED_UNIT(#594)
PLANE_ANGLE_UNIT()
);
#596=(
NAMED_UNIT(*)
PLANE_ANGLE_UNIT()
SI_UNIT($,.RADIAN.)
);
#597=PLANE_ANGLE_MEASURE_WITH_UNIT(PLANE_ANGLE_MEASURE(0.01745329252),#596);
#598=SHAPE_DEFINITION_REPRESENTATION(#599,#600);
#599=PRODUCT_DEFINITION_SHAPE('',$,#602);
#600=SHAPE_REPRESENTATION('',(#352),#590);
#601=PRODUCT_DEFINITION_CONTEXT('part definition',#606,'design');
#602=PRODUCT_DEFINITION('DSP2555-6','DSP2555-6',#603,#601);
#603=PRODUCT_DEFINITION_FORMATION('',$,#608);
#604=PRODUCT_RELATED_PRODUCT_CATEGORY('DSP2555-6','DSP2555-6',(#608));
#605=APPLICATION_PROTOCOL_DEFINITION('international standard',
'automotive_design',2009,#606);
#606=APPLICATION_CONTEXT(
'Core Data for Automotive Mechanical Design Process');
#607=PRODUCT_CONTEXT('part definition',#606,'mechanical');
#608=PRODUCT('DSP2555-6','DSP2555-6',$,(#607));
#609=PRESENTATION_STYLE_ASSIGNMENT((#610));
#610=SURFACE_STYLE_USAGE(.BOTH.,#611);
#611=SURFACE_SIDE_STYLE($,(#612));
#612=SURFACE_STYLE_FILL_AREA(#613);
#613=FILL_AREA_STYLE($,(#614));
#614=FILL_AREA_STYLE_COLOUR($,#615);
#615=COLOUR_RGB('',0.749019607843137,0.749019607843137,0.749019607843137);
ENDSEC;
END-ISO-10303-21;
