ISO-10303-21;
HEADER;
/* Generated by software containing ST-Developer
 * from STEP Tools, Inc. (www.steptools.com) 
 */

FILE_DESCRIPTION(
/* description */ (''),
/* implementation_level */ '2;1');

FILE_NAME(
/* name */ 'D:\\\X2\96F64EF6\X0\\\M6\X2\7CFB5217\X0\\\\X2\914D4EF6\X0\\\
DSL\\DSL3025-6.stp',
/* time_stamp */ '2025-03-26T16:33:30+08:00',
/* author */ ('1091212-1'),
/* organization */ (''),
/* preprocessor_version */ 'ST-DEVELOPER v15.6',
/* originating_system */ 'Autodesk Inventor 2015',
/* authorisation */ '');

FILE_SCHEMA (('AUTOMOTIVE_DESIGN { 1 0 10303 214 3 1 1 }'));
ENDSEC;

DATA;
#10=MECHANICAL_DESIGN_GEOMETRIC_PRESENTATION_REPRESENTATION('',(#13),#587);
#11=SHAPE_REPRESENTATION_RELATIONSHIP('SRR','None',#596,#12);
#12=ADVANCED_BREP_SHAPE_REPRESENTATION($,(#14),#586);
#13=STYLED_ITEM('',(#605),#14);
#14=MANIFOLD_SOLID_BREP('\X2\5BE69AD4\X0\1',#355);
#15=FACE_BOUND('',#60,.T.);
#16=FACE_BOUND('',#63,.T.);
#17=FACE_BOUND('',#66,.T.);
#18=FACE_BOUND('',#69,.T.);
#19=PLANE('',#360);
#20=PLANE('',#364);
#21=PLANE('',#368);
#22=PLANE('',#372);
#23=PLANE('',#373);
#24=PLANE('',#376);
#25=PLANE('',#377);
#26=PLANE('',#380);
#27=PLANE('',#381);
#28=PLANE('',#382);
#29=PLANE('',#385);
#30=PLANE('',#386);
#31=FACE_OUTER_BOUND('',#49,.T.);
#32=FACE_OUTER_BOUND('',#50,.T.);
#33=FACE_OUTER_BOUND('',#51,.T.);
#34=FACE_OUTER_BOUND('',#52,.T.);
#35=FACE_OUTER_BOUND('',#53,.T.);
#36=FACE_OUTER_BOUND('',#54,.T.);
#37=FACE_OUTER_BOUND('',#55,.T.);
#38=FACE_OUTER_BOUND('',#56,.T.);
#39=FACE_OUTER_BOUND('',#57,.T.);
#40=FACE_OUTER_BOUND('',#58,.T.);
#41=FACE_OUTER_BOUND('',#59,.T.);
#42=FACE_OUTER_BOUND('',#61,.T.);
#43=FACE_OUTER_BOUND('',#62,.T.);
#44=FACE_OUTER_BOUND('',#64,.T.);
#45=FACE_OUTER_BOUND('',#65,.T.);
#46=FACE_OUTER_BOUND('',#67,.T.);
#47=FACE_OUTER_BOUND('',#68,.T.);
#48=FACE_OUTER_BOUND('',#70,.T.);
#49=EDGE_LOOP('',(#235,#236,#237,#238));
#50=EDGE_LOOP('',(#239,#240,#241,#242));
#51=EDGE_LOOP('',(#243,#244,#245,#246));
#52=EDGE_LOOP('',(#247,#248,#249,#250));
#53=EDGE_LOOP('',(#251,#252,#253,#254));
#54=EDGE_LOOP('',(#255,#256,#257,#258));
#55=EDGE_LOOP('',(#259,#260,#261,#262));
#56=EDGE_LOOP('',(#263,#264,#265,#266));
#57=EDGE_LOOP('',(#267,#268,#269,#270,#271,#272,#273,#274));
#58=EDGE_LOOP('',(#275,#276,#277,#278));
#59=EDGE_LOOP('',(#279,#280,#281,#282));
#60=EDGE_LOOP('',(#283,#284,#285,#286));
#61=EDGE_LOOP('',(#287,#288,#289,#290));
#62=EDGE_LOOP('',(#291,#292,#293,#294));
#63=EDGE_LOOP('',(#295,#296,#297,#298));
#64=EDGE_LOOP('',(#299,#300,#301,#302));
#65=EDGE_LOOP('',(#303,#304,#305,#306));
#66=EDGE_LOOP('',(#307,#308,#309,#310));
#67=EDGE_LOOP('',(#311,#312,#313,#314));
#68=EDGE_LOOP('',(#315,#316,#317,#318));
#69=EDGE_LOOP('',(#319,#320,#321,#322));
#70=EDGE_LOOP('',(#323,#324,#325,#326,#327,#328,#329,#330));
#71=LINE('',#491,#107);
#72=LINE('',#494,#108);
#73=LINE('',#497,#109);
#74=LINE('',#499,#110);
#75=LINE('',#500,#111);
#76=LINE('',#506,#112);
#77=LINE('',#508,#113);
#78=LINE('',#509,#114);
#79=LINE('',#515,#115);
#80=LINE('',#518,#116);
#81=LINE('',#521,#117);
#82=LINE('',#523,#118);
#83=LINE('',#524,#119);
#84=LINE('',#530,#120);
#85=LINE('',#532,#121);
#86=LINE('',#533,#122);
#87=LINE('',#537,#123);
#88=LINE('',#539,#124);
#89=LINE('',#541,#125);
#90=LINE('',#545,#126);
#91=LINE('',#547,#127);
#92=LINE('',#549,#128);
#93=LINE('',#553,#129);
#94=LINE('',#555,#130);
#95=LINE('',#556,#131);
#96=LINE('',#559,#132);
#97=LINE('',#560,#133);
#98=LINE('',#564,#134);
#99=LINE('',#567,#135);
#100=LINE('',#568,#136);
#101=LINE('',#571,#137);
#102=LINE('',#572,#138);
#103=LINE('',#575,#139);
#104=LINE('',#576,#140);
#105=LINE('',#580,#141);
#106=LINE('',#582,#142);
#107=VECTOR('',#393,4.);
#108=VECTOR('',#396,4.);
#109=VECTOR('',#399,5.);
#110=VECTOR('',#400,5.);
#111=VECTOR('',#401,4.);
#112=VECTOR('',#408,4.);
#113=VECTOR('',#411,5.);
#114=VECTOR('',#412,5.);
#115=VECTOR('',#417,4.);
#116=VECTOR('',#420,4.);
#117=VECTOR('',#423,5.);
#118=VECTOR('',#424,5.);
#119=VECTOR('',#425,4.);
#120=VECTOR('',#432,4.);
#121=VECTOR('',#435,5.);
#122=VECTOR('',#436,5.);
#123=VECTOR('',#439,21.);
#124=VECTOR('',#440,4.);
#125=VECTOR('',#441,21.);
#126=VECTOR('',#444,21.);
#127=VECTOR('',#445,4.);
#128=VECTOR('',#446,21.);
#129=VECTOR('',#451,25.);
#130=VECTOR('',#452,4.);
#131=VECTOR('',#453,25.);
#132=VECTOR('',#456,21.);
#133=VECTOR('',#457,25.);
#134=VECTOR('',#462,25.);
#135=VECTOR('',#465,21.);
#136=VECTOR('',#466,25.);
#137=VECTOR('',#469,4.);
#138=VECTOR('',#470,25.);
#139=VECTOR('',#473,21.);
#140=VECTOR('',#474,25.);
#141=VECTOR('',#479,25.);
#142=VECTOR('',#482,21.);
#143=CIRCLE('',#358,3.5);
#144=CIRCLE('',#359,3.5);
#145=CIRCLE('',#362,3.5);
#146=CIRCLE('',#363,3.5);
#147=CIRCLE('',#366,3.5);
#148=CIRCLE('',#367,3.5);
#149=CIRCLE('',#370,3.5);
#150=CIRCLE('',#371,3.5);
#151=CIRCLE('',#374,5.);
#152=CIRCLE('',#375,9.);
#153=CIRCLE('',#379,5.);
#154=CIRCLE('',#384,9.);
#155=VERTEX_POINT('',#487);
#156=VERTEX_POINT('',#488);
#157=VERTEX_POINT('',#490);
#158=VERTEX_POINT('',#492);
#159=VERTEX_POINT('',#496);
#160=VERTEX_POINT('',#498);
#161=VERTEX_POINT('',#502);
#162=VERTEX_POINT('',#504);
#163=VERTEX_POINT('',#511);
#164=VERTEX_POINT('',#512);
#165=VERTEX_POINT('',#514);
#166=VERTEX_POINT('',#516);
#167=VERTEX_POINT('',#520);
#168=VERTEX_POINT('',#522);
#169=VERTEX_POINT('',#526);
#170=VERTEX_POINT('',#528);
#171=VERTEX_POINT('',#535);
#172=VERTEX_POINT('',#536);
#173=VERTEX_POINT('',#538);
#174=VERTEX_POINT('',#540);
#175=VERTEX_POINT('',#542);
#176=VERTEX_POINT('',#544);
#177=VERTEX_POINT('',#546);
#178=VERTEX_POINT('',#548);
#179=VERTEX_POINT('',#552);
#180=VERTEX_POINT('',#554);
#181=VERTEX_POINT('',#558);
#182=VERTEX_POINT('',#562);
#183=VERTEX_POINT('',#566);
#184=VERTEX_POINT('',#570);
#185=VERTEX_POINT('',#574);
#186=VERTEX_POINT('',#578);
#187=EDGE_CURVE('',#155,#156,#143,.T.);
#188=EDGE_CURVE('',#157,#155,#71,.T.);
#189=EDGE_CURVE('',#158,#157,#144,.T.);
#190=EDGE_CURVE('',#158,#156,#72,.T.);
#191=EDGE_CURVE('',#156,#159,#73,.T.);
#192=EDGE_CURVE('',#160,#158,#74,.T.);
#193=EDGE_CURVE('',#160,#159,#75,.T.);
#194=EDGE_CURVE('',#159,#161,#145,.T.);
#195=EDGE_CURVE('',#162,#160,#146,.T.);
#196=EDGE_CURVE('',#162,#161,#76,.T.);
#197=EDGE_CURVE('',#161,#155,#77,.T.);
#198=EDGE_CURVE('',#157,#162,#78,.T.);
#199=EDGE_CURVE('',#163,#164,#147,.T.);
#200=EDGE_CURVE('',#165,#163,#79,.T.);
#201=EDGE_CURVE('',#166,#165,#148,.T.);
#202=EDGE_CURVE('',#166,#164,#80,.T.);
#203=EDGE_CURVE('',#164,#167,#81,.T.);
#204=EDGE_CURVE('',#168,#166,#82,.T.);
#205=EDGE_CURVE('',#168,#167,#83,.T.);
#206=EDGE_CURVE('',#167,#169,#149,.T.);
#207=EDGE_CURVE('',#170,#168,#150,.T.);
#208=EDGE_CURVE('',#170,#169,#84,.T.);
#209=EDGE_CURVE('',#169,#163,#85,.T.);
#210=EDGE_CURVE('',#165,#170,#86,.T.);
#211=EDGE_CURVE('',#171,#172,#87,.T.);
#212=EDGE_CURVE('',#172,#173,#88,.T.);
#213=EDGE_CURVE('',#173,#174,#89,.T.);
#214=EDGE_CURVE('',#174,#175,#151,.T.);
#215=EDGE_CURVE('',#175,#176,#90,.T.);
#216=EDGE_CURVE('',#176,#177,#91,.T.);
#217=EDGE_CURVE('',#177,#178,#92,.T.);
#218=EDGE_CURVE('',#178,#171,#152,.T.);
#219=EDGE_CURVE('',#179,#172,#93,.T.);
#220=EDGE_CURVE('',#180,#179,#94,.T.);
#221=EDGE_CURVE('',#173,#180,#95,.T.);
#222=EDGE_CURVE('',#181,#180,#96,.T.);
#223=EDGE_CURVE('',#174,#181,#97,.T.);
#224=EDGE_CURVE('',#182,#181,#153,.T.);
#225=EDGE_CURVE('',#175,#182,#98,.T.);
#226=EDGE_CURVE('',#183,#182,#99,.T.);
#227=EDGE_CURVE('',#176,#183,#100,.T.);
#228=EDGE_CURVE('',#184,#183,#101,.T.);
#229=EDGE_CURVE('',#177,#184,#102,.T.);
#230=EDGE_CURVE('',#185,#184,#103,.T.);
#231=EDGE_CURVE('',#178,#185,#104,.T.);
#232=EDGE_CURVE('',#186,#185,#154,.T.);
#233=EDGE_CURVE('',#171,#186,#105,.T.);
#234=EDGE_CURVE('',#179,#186,#106,.T.);
#235=ORIENTED_EDGE('',*,*,#187,.F.);
#236=ORIENTED_EDGE('',*,*,#188,.F.);
#237=ORIENTED_EDGE('',*,*,#189,.F.);
#238=ORIENTED_EDGE('',*,*,#190,.T.);
#239=ORIENTED_EDGE('',*,*,#191,.F.);
#240=ORIENTED_EDGE('',*,*,#190,.F.);
#241=ORIENTED_EDGE('',*,*,#192,.F.);
#242=ORIENTED_EDGE('',*,*,#193,.T.);
#243=ORIENTED_EDGE('',*,*,#194,.F.);
#244=ORIENTED_EDGE('',*,*,#193,.F.);
#245=ORIENTED_EDGE('',*,*,#195,.F.);
#246=ORIENTED_EDGE('',*,*,#196,.T.);
#247=ORIENTED_EDGE('',*,*,#197,.F.);
#248=ORIENTED_EDGE('',*,*,#196,.F.);
#249=ORIENTED_EDGE('',*,*,#198,.F.);
#250=ORIENTED_EDGE('',*,*,#188,.T.);
#251=ORIENTED_EDGE('',*,*,#199,.F.);
#252=ORIENTED_EDGE('',*,*,#200,.F.);
#253=ORIENTED_EDGE('',*,*,#201,.F.);
#254=ORIENTED_EDGE('',*,*,#202,.T.);
#255=ORIENTED_EDGE('',*,*,#203,.F.);
#256=ORIENTED_EDGE('',*,*,#202,.F.);
#257=ORIENTED_EDGE('',*,*,#204,.F.);
#258=ORIENTED_EDGE('',*,*,#205,.T.);
#259=ORIENTED_EDGE('',*,*,#206,.F.);
#260=ORIENTED_EDGE('',*,*,#205,.F.);
#261=ORIENTED_EDGE('',*,*,#207,.F.);
#262=ORIENTED_EDGE('',*,*,#208,.T.);
#263=ORIENTED_EDGE('',*,*,#209,.F.);
#264=ORIENTED_EDGE('',*,*,#208,.F.);
#265=ORIENTED_EDGE('',*,*,#210,.F.);
#266=ORIENTED_EDGE('',*,*,#200,.T.);
#267=ORIENTED_EDGE('',*,*,#211,.T.);
#268=ORIENTED_EDGE('',*,*,#212,.T.);
#269=ORIENTED_EDGE('',*,*,#213,.T.);
#270=ORIENTED_EDGE('',*,*,#214,.T.);
#271=ORIENTED_EDGE('',*,*,#215,.T.);
#272=ORIENTED_EDGE('',*,*,#216,.T.);
#273=ORIENTED_EDGE('',*,*,#217,.T.);
#274=ORIENTED_EDGE('',*,*,#218,.T.);
#275=ORIENTED_EDGE('',*,*,#219,.F.);
#276=ORIENTED_EDGE('',*,*,#220,.F.);
#277=ORIENTED_EDGE('',*,*,#221,.F.);
#278=ORIENTED_EDGE('',*,*,#212,.F.);
#279=ORIENTED_EDGE('',*,*,#221,.T.);
#280=ORIENTED_EDGE('',*,*,#222,.F.);
#281=ORIENTED_EDGE('',*,*,#223,.F.);
#282=ORIENTED_EDGE('',*,*,#213,.F.);
#283=ORIENTED_EDGE('',*,*,#195,.T.);
#284=ORIENTED_EDGE('',*,*,#192,.T.);
#285=ORIENTED_EDGE('',*,*,#189,.T.);
#286=ORIENTED_EDGE('',*,*,#198,.T.);
#287=ORIENTED_EDGE('',*,*,#223,.T.);
#288=ORIENTED_EDGE('',*,*,#224,.F.);
#289=ORIENTED_EDGE('',*,*,#225,.F.);
#290=ORIENTED_EDGE('',*,*,#214,.F.);
#291=ORIENTED_EDGE('',*,*,#225,.T.);
#292=ORIENTED_EDGE('',*,*,#226,.F.);
#293=ORIENTED_EDGE('',*,*,#227,.F.);
#294=ORIENTED_EDGE('',*,*,#215,.F.);
#295=ORIENTED_EDGE('',*,*,#207,.T.);
#296=ORIENTED_EDGE('',*,*,#204,.T.);
#297=ORIENTED_EDGE('',*,*,#201,.T.);
#298=ORIENTED_EDGE('',*,*,#210,.T.);
#299=ORIENTED_EDGE('',*,*,#227,.T.);
#300=ORIENTED_EDGE('',*,*,#228,.F.);
#301=ORIENTED_EDGE('',*,*,#229,.F.);
#302=ORIENTED_EDGE('',*,*,#216,.F.);
#303=ORIENTED_EDGE('',*,*,#229,.T.);
#304=ORIENTED_EDGE('',*,*,#230,.F.);
#305=ORIENTED_EDGE('',*,*,#231,.F.);
#306=ORIENTED_EDGE('',*,*,#217,.F.);
#307=ORIENTED_EDGE('',*,*,#206,.T.);
#308=ORIENTED_EDGE('',*,*,#209,.T.);
#309=ORIENTED_EDGE('',*,*,#199,.T.);
#310=ORIENTED_EDGE('',*,*,#203,.T.);
#311=ORIENTED_EDGE('',*,*,#231,.T.);
#312=ORIENTED_EDGE('',*,*,#232,.F.);
#313=ORIENTED_EDGE('',*,*,#233,.F.);
#314=ORIENTED_EDGE('',*,*,#218,.F.);
#315=ORIENTED_EDGE('',*,*,#233,.T.);
#316=ORIENTED_EDGE('',*,*,#234,.F.);
#317=ORIENTED_EDGE('',*,*,#219,.T.);
#318=ORIENTED_EDGE('',*,*,#211,.F.);
#319=ORIENTED_EDGE('',*,*,#194,.T.);
#320=ORIENTED_EDGE('',*,*,#197,.T.);
#321=ORIENTED_EDGE('',*,*,#187,.T.);
#322=ORIENTED_EDGE('',*,*,#191,.T.);
#323=ORIENTED_EDGE('',*,*,#234,.T.);
#324=ORIENTED_EDGE('',*,*,#232,.T.);
#325=ORIENTED_EDGE('',*,*,#230,.T.);
#326=ORIENTED_EDGE('',*,*,#228,.T.);
#327=ORIENTED_EDGE('',*,*,#226,.T.);
#328=ORIENTED_EDGE('',*,*,#224,.T.);
#329=ORIENTED_EDGE('',*,*,#222,.T.);
#330=ORIENTED_EDGE('',*,*,#220,.T.);
#331=CYLINDRICAL_SURFACE('',#357,3.5);
#332=CYLINDRICAL_SURFACE('',#361,3.5);
#333=CYLINDRICAL_SURFACE('',#365,3.5);
#334=CYLINDRICAL_SURFACE('',#369,3.5);
#335=CYLINDRICAL_SURFACE('',#378,5.);
#336=CYLINDRICAL_SURFACE('',#383,9.);
#337=ADVANCED_FACE('',(#31),#331,.F.);
#338=ADVANCED_FACE('',(#32),#19,.F.);
#339=ADVANCED_FACE('',(#33),#332,.F.);
#340=ADVANCED_FACE('',(#34),#20,.F.);
#341=ADVANCED_FACE('',(#35),#333,.F.);
#342=ADVANCED_FACE('',(#36),#21,.F.);
#343=ADVANCED_FACE('',(#37),#334,.F.);
#344=ADVANCED_FACE('',(#38),#22,.F.);
#345=ADVANCED_FACE('',(#39),#23,.F.);
#346=ADVANCED_FACE('',(#40),#24,.T.);
#347=ADVANCED_FACE('',(#41,#15),#25,.T.);
#348=ADVANCED_FACE('',(#42),#335,.F.);
#349=ADVANCED_FACE('',(#43,#16),#26,.T.);
#350=ADVANCED_FACE('',(#44),#27,.T.);
#351=ADVANCED_FACE('',(#45,#17),#28,.T.);
#352=ADVANCED_FACE('',(#46),#336,.T.);
#353=ADVANCED_FACE('',(#47,#18),#29,.T.);
#354=ADVANCED_FACE('',(#48),#30,.T.);
#355=CLOSED_SHELL('',(#337,#338,#339,#340,#341,#342,#343,#344,#345,#346,
#347,#348,#349,#350,#351,#352,#353,#354));
#356=AXIS2_PLACEMENT_3D('placement',#485,#387,#388);
#357=AXIS2_PLACEMENT_3D('',#486,#389,#390);
#358=AXIS2_PLACEMENT_3D('',#489,#391,#392);
#359=AXIS2_PLACEMENT_3D('',#493,#394,#395);
#360=AXIS2_PLACEMENT_3D('',#495,#397,#398);
#361=AXIS2_PLACEMENT_3D('',#501,#402,#403);
#362=AXIS2_PLACEMENT_3D('',#503,#404,#405);
#363=AXIS2_PLACEMENT_3D('',#505,#406,#407);
#364=AXIS2_PLACEMENT_3D('',#507,#409,#410);
#365=AXIS2_PLACEMENT_3D('',#510,#413,#414);
#366=AXIS2_PLACEMENT_3D('',#513,#415,#416);
#367=AXIS2_PLACEMENT_3D('',#517,#418,#419);
#368=AXIS2_PLACEMENT_3D('',#519,#421,#422);
#369=AXIS2_PLACEMENT_3D('',#525,#426,#427);
#370=AXIS2_PLACEMENT_3D('',#527,#428,#429);
#371=AXIS2_PLACEMENT_3D('',#529,#430,#431);
#372=AXIS2_PLACEMENT_3D('',#531,#433,#434);
#373=AXIS2_PLACEMENT_3D('',#534,#437,#438);
#374=AXIS2_PLACEMENT_3D('',#543,#442,#443);
#375=AXIS2_PLACEMENT_3D('',#550,#447,#448);
#376=AXIS2_PLACEMENT_3D('',#551,#449,#450);
#377=AXIS2_PLACEMENT_3D('',#557,#454,#455);
#378=AXIS2_PLACEMENT_3D('',#561,#458,#459);
#379=AXIS2_PLACEMENT_3D('',#563,#460,#461);
#380=AXIS2_PLACEMENT_3D('',#565,#463,#464);
#381=AXIS2_PLACEMENT_3D('',#569,#467,#468);
#382=AXIS2_PLACEMENT_3D('',#573,#471,#472);
#383=AXIS2_PLACEMENT_3D('',#577,#475,#476);
#384=AXIS2_PLACEMENT_3D('',#579,#477,#478);
#385=AXIS2_PLACEMENT_3D('',#581,#480,#481);
#386=AXIS2_PLACEMENT_3D('',#583,#483,#484);
#387=DIRECTION('axis',(0.,0.,1.));
#388=DIRECTION('refdir',(1.,0.,0.));
#389=DIRECTION('center_axis',(-1.,-1.77635683940025E-16,0.));
#390=DIRECTION('ref_axis',(0.,0.,-1.));
#391=DIRECTION('center_axis',(1.,1.22081779657948E-16,0.));
#392=DIRECTION('ref_axis',(0.,0.,-1.));
#393=DIRECTION('',(-1.,-1.77635683940025E-16,0.));
#394=DIRECTION('center_axis',(-1.,-1.05735526154777E-16,0.));
#395=DIRECTION('ref_axis',(0.,0.,-1.));
#396=DIRECTION('',(-1.,-1.77635683940025E-16,0.));
#397=DIRECTION('center_axis',(-3.94430452610506E-32,2.22044604925031E-16,
1.));
#398=DIRECTION('ref_axis',(-8.88178419700125E-17,1.,-2.22044604925031E-16));
#399=DIRECTION('',(1.22081779657948E-16,-1.,2.22044604925031E-16));
#400=DIRECTION('',(-1.05735526154777E-16,1.,-2.22044604925031E-16));
#401=DIRECTION('',(-1.,-1.77635683940025E-16,0.));
#402=DIRECTION('center_axis',(-1.,-1.77635683940025E-16,0.));
#403=DIRECTION('ref_axis',(0.,0.,1.));
#404=DIRECTION('center_axis',(1.,1.22081779657948E-16,0.));
#405=DIRECTION('ref_axis',(0.,0.,1.));
#406=DIRECTION('center_axis',(-1.,-1.05735526154777E-16,0.));
#407=DIRECTION('ref_axis',(0.,0.,1.));
#408=DIRECTION('',(-1.,-1.77635683940025E-16,0.));
#409=DIRECTION('center_axis',(0.,0.,-1.));
#410=DIRECTION('ref_axis',(8.88178419700125E-17,-1.,0.));
#411=DIRECTION('',(-1.22081779657948E-16,1.,0.));
#412=DIRECTION('',(1.05735526154777E-16,-1.,0.));
#413=DIRECTION('center_axis',(2.66453525910038E-16,-1.,0.));
#414=DIRECTION('ref_axis',(-6.34413156928661E-16,-1.6904162254736E-31,-1.));
#415=DIRECTION('center_axis',(-3.31638330683564E-16,1.,0.));
#416=DIRECTION('ref_axis',(-6.34413156928661E-16,-1.6904162254736E-31,-1.));
#417=DIRECTION('',(2.66453525910038E-16,-1.,0.));
#418=DIRECTION('center_axis',(2.37904933848248E-16,-1.,0.));
#419=DIRECTION('ref_axis',(-6.34413156928661E-16,-1.6904162254736E-31,-1.));
#420=DIRECTION('',(2.66453525910038E-16,-1.,0.));
#421=DIRECTION('center_axis',(4.44089209850063E-16,1.18329135783152E-31,
-1.));
#422=DIRECTION('ref_axis',(1.,2.66453525910038E-16,4.44089209850063E-16));
#423=DIRECTION('',(-1.,-3.31638330683564E-16,-4.44089209850063E-16));
#424=DIRECTION('',(1.,2.37904933848248E-16,4.44089209850063E-16));
#425=DIRECTION('',(2.66453525910038E-16,-1.,0.));
#426=DIRECTION('center_axis',(2.66453525910038E-16,-1.,0.));
#427=DIRECTION('ref_axis',(6.3441315692866E-16,1.69041622547359E-31,1.));
#428=DIRECTION('center_axis',(-3.31638330683564E-16,1.,0.));
#429=DIRECTION('ref_axis',(6.3441315692866E-16,1.69041622547359E-31,1.));
#430=DIRECTION('center_axis',(2.37904933848248E-16,-1.,0.));
#431=DIRECTION('ref_axis',(6.3441315692866E-16,1.69041622547359E-31,1.));
#432=DIRECTION('',(2.66453525910038E-16,-1.,0.));
#433=DIRECTION('center_axis',(4.44089209850063E-16,1.18329135783152E-31,
1.));
#434=DIRECTION('ref_axis',(-1.,-2.66453525910038E-16,4.44089209850063E-16));
#435=DIRECTION('',(1.,3.31638330683564E-16,-4.44089209850063E-16));
#436=DIRECTION('',(-1.,-2.37904933848248E-16,4.44089209850063E-16));
#437=DIRECTION('center_axis',(0.,0.,1.));
#438=DIRECTION('ref_axis',(1.,0.,0.));
#439=DIRECTION('',(-1.22081779657948E-16,1.,0.));
#440=DIRECTION('',(1.,0.,0.));
#441=DIRECTION('',(1.05735526154777E-16,-1.,0.));
#442=DIRECTION('center_axis',(0.,0.,1.));
#443=DIRECTION('ref_axis',(1.,0.,0.));
#444=DIRECTION('',(1.,2.37904933848248E-16,0.));
#445=DIRECTION('',(0.,-1.,0.));
#446=DIRECTION('',(-1.,-3.31638330683564E-16,0.));
#447=DIRECTION('center_axis',(0.,0.,-1.));
#448=DIRECTION('ref_axis',(-1.,-1.2335811384724E-16,0.));
#449=DIRECTION('center_axis',(0.,1.,0.));
#450=DIRECTION('ref_axis',(-1.,0.,0.));
#451=DIRECTION('',(0.,0.,-1.));
#452=DIRECTION('',(-1.,0.,0.));
#453=DIRECTION('',(0.,0.,1.));
#454=DIRECTION('center_axis',(1.,1.05735526154777E-16,0.));
#455=DIRECTION('ref_axis',(-8.88178419700125E-17,1.,0.));
#456=DIRECTION('',(-1.05735526154777E-16,1.,0.));
#457=DIRECTION('',(0.,0.,1.));
#458=DIRECTION('center_axis',(0.,0.,1.));
#459=DIRECTION('ref_axis',(1.,0.,0.));
#460=DIRECTION('center_axis',(0.,0.,-1.));
#461=DIRECTION('ref_axis',(1.,0.,0.));
#462=DIRECTION('',(0.,0.,1.));
#463=DIRECTION('center_axis',(-2.37904933848248E-16,1.,0.));
#464=DIRECTION('ref_axis',(-1.,-2.66453525910038E-16,0.));
#465=DIRECTION('',(-1.,-2.37904933848248E-16,0.));
#466=DIRECTION('',(0.,0.,1.));
#467=DIRECTION('center_axis',(1.,0.,0.));
#468=DIRECTION('ref_axis',(0.,1.,0.));
#469=DIRECTION('',(0.,1.,0.));
#470=DIRECTION('',(0.,0.,1.));
#471=DIRECTION('center_axis',(3.31638330683564E-16,-1.,0.));
#472=DIRECTION('ref_axis',(1.,3.31638330683564E-16,0.));
#473=DIRECTION('',(1.,3.31638330683564E-16,0.));
#474=DIRECTION('',(0.,0.,1.));
#475=DIRECTION('center_axis',(0.,0.,1.));
#476=DIRECTION('ref_axis',(-1.,-1.2335811384724E-16,0.));
#477=DIRECTION('center_axis',(0.,0.,1.));
#478=DIRECTION('ref_axis',(-1.,-1.2335811384724E-16,0.));
#479=DIRECTION('',(0.,0.,1.));
#480=DIRECTION('center_axis',(-1.,-1.22081779657948E-16,0.));
#481=DIRECTION('ref_axis',(1.22081779657948E-16,-1.,0.));
#482=DIRECTION('',(1.22081779657948E-16,-1.,0.));
#483=DIRECTION('center_axis',(0.,0.,1.));
#484=DIRECTION('ref_axis',(1.,0.,0.));
#485=CARTESIAN_POINT('',(0.,0.,0.));
#486=CARTESIAN_POINT('Origin',(4.,20.,0.));
#487=CARTESIAN_POINT('',(-2.77555756156289E-15,20.,-3.5));
#488=CARTESIAN_POINT('',(-2.77555756156289E-15,20.,3.5));
#489=CARTESIAN_POINT('Origin',(-2.22044604925031E-15,20.,0.));
#490=CARTESIAN_POINT('',(4.,20.,-3.5));
#491=CARTESIAN_POINT('',(4.,20.,-3.5));
#492=CARTESIAN_POINT('',(4.,20.,3.5));
#493=CARTESIAN_POINT('Origin',(4.,20.,0.));
#494=CARTESIAN_POINT('',(4.,20.,3.5));
#495=CARTESIAN_POINT('Origin',(4.,15.,3.5));
#496=CARTESIAN_POINT('',(-2.22044604925031E-15,15.,3.5));
#497=CARTESIAN_POINT('',(-2.77555756156289E-15,22.5,3.5));
#498=CARTESIAN_POINT('',(4.,15.,3.5));
#499=CARTESIAN_POINT('',(4.,12.,3.5));
#500=CARTESIAN_POINT('',(4.,15.,3.5));
#501=CARTESIAN_POINT('Origin',(4.,15.,0.));
#502=CARTESIAN_POINT('',(-2.22044604925031E-15,15.,-3.5));
#503=CARTESIAN_POINT('Origin',(-1.11022302462516E-15,15.,0.));
#504=CARTESIAN_POINT('',(4.,15.,-3.5));
#505=CARTESIAN_POINT('Origin',(4.,15.,0.));
#506=CARTESIAN_POINT('',(4.,15.,-3.5));
#507=CARTESIAN_POINT('Origin',(4.,20.,-3.5));
#508=CARTESIAN_POINT('',(-3.05311331771918E-15,25.,-3.5));
#509=CARTESIAN_POINT('',(4.,14.5,-3.5));
#510=CARTESIAN_POINT('Origin',(20.,4.00000000000001,0.));
#511=CARTESIAN_POINT('',(20.,6.10622663543836E-15,3.5));
#512=CARTESIAN_POINT('',(20.,6.10622663543836E-15,-3.5));
#513=CARTESIAN_POINT('Origin',(20.,4.9960036108132E-15,0.));
#514=CARTESIAN_POINT('',(20.,4.00000000000001,3.5));
#515=CARTESIAN_POINT('',(20.,4.00000000000001,3.5));
#516=CARTESIAN_POINT('',(20.,4.00000000000001,-3.5));
#517=CARTESIAN_POINT('Origin',(20.,4.00000000000001,0.));
#518=CARTESIAN_POINT('',(20.,4.00000000000001,-3.5));
#519=CARTESIAN_POINT('Origin',(15.,4.00000000000001,-3.50000000000001));
#520=CARTESIAN_POINT('',(15.,4.44089209850063E-15,-3.50000000000001));
#521=CARTESIAN_POINT('',(12.,3.33066907387547E-15,-3.50000000000001));
#522=CARTESIAN_POINT('',(15.,4.00000000000001,-3.50000000000001));
#523=CARTESIAN_POINT('',(22.5,4.00000000000001,-3.5));
#524=CARTESIAN_POINT('',(15.,4.00000000000001,-3.50000000000001));
#525=CARTESIAN_POINT('Origin',(15.,4.00000000000001,0.));
#526=CARTESIAN_POINT('',(15.,4.44089209850063E-15,3.5));
#527=CARTESIAN_POINT('Origin',(15.,3.88578058618805E-15,0.));
#528=CARTESIAN_POINT('',(15.,4.00000000000001,3.5));
#529=CARTESIAN_POINT('Origin',(15.,4.00000000000001,0.));
#530=CARTESIAN_POINT('',(15.,4.00000000000001,3.5));
#531=CARTESIAN_POINT('Origin',(20.,4.00000000000001,3.5));
#532=CARTESIAN_POINT('',(14.5,4.16333634234434E-15,3.5));
#533=CARTESIAN_POINT('',(25.,4.00000000000001,3.5));
#534=CARTESIAN_POINT('Origin',(10.1383181172953,10.1383181172953,-12.5));
#535=CARTESIAN_POINT('',(-1.11022302462516E-15,9.,-12.5));
#536=CARTESIAN_POINT('',(-3.67394039744206E-15,30.,-12.5));
#537=CARTESIAN_POINT('',(-3.67394039744206E-15,30.,-12.5));
#538=CARTESIAN_POINT('',(4.,30.,-12.5));
#539=CARTESIAN_POINT('',(4.,30.,-12.5));
#540=CARTESIAN_POINT('',(4.,9.,-12.5));
#541=CARTESIAN_POINT('',(4.,9.,-12.5));
#542=CARTESIAN_POINT('',(9.,4.,-12.5));
#543=CARTESIAN_POINT('Origin',(9.,9.,-12.5));
#544=CARTESIAN_POINT('',(30.,4.00000000000001,-12.5));
#545=CARTESIAN_POINT('',(30.,4.00000000000001,-12.5));
#546=CARTESIAN_POINT('',(30.,8.88178419700125E-15,-12.5));
#547=CARTESIAN_POINT('',(30.,9.43689570931383E-15,-12.5));
#548=CARTESIAN_POINT('',(9.,0.,-12.5));
#549=CARTESIAN_POINT('',(9.,2.22044604925031E-15,-12.5));
#550=CARTESIAN_POINT('Origin',(9.,9.,-12.5));
#551=CARTESIAN_POINT('Origin',(4.,30.,0.));
#552=CARTESIAN_POINT('',(-3.67394039744206E-15,30.,12.5));
#553=CARTESIAN_POINT('',(-3.67394039744206E-15,30.,0.));
#554=CARTESIAN_POINT('',(4.,30.,12.5));
#555=CARTESIAN_POINT('',(4.,30.,12.5));
#556=CARTESIAN_POINT('',(4.,30.,0.));
#557=CARTESIAN_POINT('Origin',(4.,9.,0.));
#558=CARTESIAN_POINT('',(4.,9.,12.5));
#559=CARTESIAN_POINT('',(4.,9.,12.5));
#560=CARTESIAN_POINT('',(4.,9.,0.));
#561=CARTESIAN_POINT('Origin',(9.,9.,0.));
#562=CARTESIAN_POINT('',(9.,4.,12.5));
#563=CARTESIAN_POINT('Origin',(9.,9.,12.5));
#564=CARTESIAN_POINT('',(9.,4.,0.));
#565=CARTESIAN_POINT('Origin',(30.,4.00000000000001,0.));
#566=CARTESIAN_POINT('',(30.,4.00000000000001,12.5));
#567=CARTESIAN_POINT('',(30.,4.00000000000001,12.5));
#568=CARTESIAN_POINT('',(30.,4.00000000000001,0.));
#569=CARTESIAN_POINT('Origin',(30.,9.43689570931383E-15,0.));
#570=CARTESIAN_POINT('',(30.,8.88178419700125E-15,12.5));
#571=CARTESIAN_POINT('',(30.,9.43689570931383E-15,12.5));
#572=CARTESIAN_POINT('',(30.,9.18485099360515E-15,0.));
#573=CARTESIAN_POINT('Origin',(9.,2.22044604925031E-15,0.));
#574=CARTESIAN_POINT('',(9.,0.,12.5));
#575=CARTESIAN_POINT('',(9.,2.22044604925031E-15,12.5));
#576=CARTESIAN_POINT('',(9.,2.22044604925031E-15,0.));
#577=CARTESIAN_POINT('Origin',(9.,9.,0.));
#578=CARTESIAN_POINT('',(-1.11022302462516E-15,9.,12.5));
#579=CARTESIAN_POINT('Origin',(9.,9.,12.5));
#580=CARTESIAN_POINT('',(-1.11022302462516E-15,9.,0.));
#581=CARTESIAN_POINT('Origin',(-3.67394039744206E-15,30.,0.));
#582=CARTESIAN_POINT('',(-3.67394039744206E-15,30.,12.5));
#583=CARTESIAN_POINT('Origin',(10.1383181172953,10.1383181172953,12.5));
#584=UNCERTAINTY_MEASURE_WITH_UNIT(LENGTH_MEASURE(0.01),#588,
'DISTANCE_ACCURACY_VALUE',
'Maximum model space distance between geometric entities at asserted c
onnectivities');
#585=UNCERTAINTY_MEASURE_WITH_UNIT(LENGTH_MEASURE(1.E-6),#588,
'DISTANCE_ACCURACY_VALUE',
'Maximum model space distance between geometric entities at asserted c
onnectivities');
#586=(
GEOMETRIC_REPRESENTATION_CONTEXT(3)
GLOBAL_UNCERTAINTY_ASSIGNED_CONTEXT((#584))
GLOBAL_UNIT_ASSIGNED_CONTEXT((#588,#591,#589))
REPRESENTATION_CONTEXT('','3D')
);
#587=(
GEOMETRIC_REPRESENTATION_CONTEXT(3)
GLOBAL_UNCERTAINTY_ASSIGNED_CONTEXT((#585))
GLOBAL_UNIT_ASSIGNED_CONTEXT((#588,#591,#589))
REPRESENTATION_CONTEXT('','3D')
);
#588=(
LENGTH_UNIT()
NAMED_UNIT(*)
SI_UNIT(.MILLI.,.METRE.)
);
#589=(
NAMED_UNIT(*)
SI_UNIT($,.STERADIAN.)
SOLID_ANGLE_UNIT()
);
#590=DIMENSIONAL_EXPONENTS(0.,0.,0.,0.,0.,0.,0.);
#591=(
CONVERSION_BASED_UNIT('degree',#593)
NAMED_UNIT(#590)
PLANE_ANGLE_UNIT()
);
#592=(
NAMED_UNIT(*)
PLANE_ANGLE_UNIT()
SI_UNIT($,.RADIAN.)
);
#593=PLANE_ANGLE_MEASURE_WITH_UNIT(PLANE_ANGLE_MEASURE(0.01745329252),#592);
#594=SHAPE_DEFINITION_REPRESENTATION(#595,#596);
#595=PRODUCT_DEFINITION_SHAPE('',$,#598);
#596=SHAPE_REPRESENTATION('',(#356),#586);
#597=PRODUCT_DEFINITION_CONTEXT('part definition',#602,'design');
#598=PRODUCT_DEFINITION('DSL3025-6','DSL3025-6',#599,#597);
#599=PRODUCT_DEFINITION_FORMATION('',$,#604);
#600=PRODUCT_RELATED_PRODUCT_CATEGORY('DSL3025-6','DSL3025-6',(#604));
#601=APPLICATION_PROTOCOL_DEFINITION('international standard',
'automotive_design',2009,#602);
#602=APPLICATION_CONTEXT(
'Core Data for Automotive Mechanical Design Process');
#603=PRODUCT_CONTEXT('part definition',#602,'mechanical');
#604=PRODUCT('DSL3025-6','DSL3025-6',$,(#603));
#605=PRESENTATION_STYLE_ASSIGNMENT((#606));
#606=SURFACE_STYLE_USAGE(.BOTH.,#607);
#607=SURFACE_SIDE_STYLE($,(#608));
#608=SURFACE_STYLE_FILL_AREA(#609);
#609=FILL_AREA_STYLE($,(#610));
#610=FILL_AREA_STYLE_COLOUR($,#611);
#611=COLOUR_RGB('',0.749019607843137,0.749019607843137,0.749019607843137);
ENDSEC;
END-ISO-10303-21;
