ISO-10303-21;
HEADER;
/* Generated by software containing ST-Developer
 * from STEP Tools, Inc. (www.steptools.com) 
 */

FILE_DESCRIPTION(
/* description */ (''),
/* implementation_level */ '2;1');

FILE_NAME(
/* name */ 'D:\\\X2\96F64EF6\X0\\\M6\X2\7CFB5217\X0\\\\X2\914D4EF6\X0\\\
DCB3030R.stp',
/* time_stamp */ '2025-03-26T16:48:56+08:00',
/* author */ ('1091212-1'),
/* organization */ (''),
/* preprocessor_version */ 'ST-DEVELOPER v15.6',
/* originating_system */ 'Autodesk Inventor 2015',
/* authorisation */ '');

FILE_SCHEMA (('AUTOMOTIVE_DESIGN { 1 0 10303 214 3 1 1 }'));
ENDSEC;

DATA;
#10=MECHANICAL_DESIGN_GEOMETRIC_PRESENTATION_REPRESENTATION('',(#13),#400);
#11=SHAPE_REPRESENTATION_RELATIONSHIP('SRR','None',#409,#12);
#12=ADVANCED_BREP_SHAPE_REPRESENTATION($,(#14),#399);
#13=STYLED_ITEM('',(#418),#14);
#14=MANIFOLD_SOLID_BREP('\X2\5BE69AD4\X0\1',#228);
#15=ELLIPSE('',#247,38.1837661840736,27.);
#16=ELLIPSE('',#249,38.1837661840736,27.);
#17=ELLIPSE('',#252,38.1837661840736,27.);
#18=LINE('',#362,#27);
#19=LINE('',#364,#28);
#20=LINE('',#367,#29);
#21=LINE('',#385,#30);
#22=LINE('',#386,#31);
#23=LINE('',#389,#32);
#24=LINE('',#390,#33);
#25=LINE('',#392,#34);
#26=LINE('',#395,#35);
#27=VECTOR('',#292,16.549211741402);
#28=VECTOR('',#293,11.);
#29=VECTOR('',#296,11.);
#30=VECTOR('',#321,16.549211741402);
#31=VECTOR('',#322,11.);
#32=VECTOR('',#325,27.);
#33=VECTOR('',#326,27.);
#34=VECTOR('',#329,27.);
#35=VECTOR('',#334,16.549211741402);
#36=PLANE('',#242);
#37=PLANE('',#243);
#38=PLANE('',#256);
#39=PLANE('',#257);
#40=PLANE('',#258);
#41=PLANE('',#259);
#42=PLANE('',#260);
#43=PLANE('',#261);
#44=FACE_BOUND('',#71,.T.);
#45=FACE_BOUND('',#73,.T.);
#46=FACE_BOUND('',#75,.T.);
#47=FACE_BOUND('',#77,.T.);
#48=FACE_BOUND('',#80,.T.);
#49=FACE_BOUND('',#85,.T.);
#50=FACE_BOUND('',#87,.T.);
#51=FACE_BOUND('',#89,.T.);
#52=FACE_BOUND('',#91,.T.);
#53=FACE_BOUND('',#93,.T.);
#54=FACE_BOUND('',#95,.T.);
#55=FACE_OUTER_BOUND('',#70,.T.);
#56=FACE_OUTER_BOUND('',#72,.T.);
#57=FACE_OUTER_BOUND('',#74,.T.);
#58=FACE_OUTER_BOUND('',#76,.T.);
#59=FACE_OUTER_BOUND('',#78,.T.);
#60=FACE_OUTER_BOUND('',#79,.T.);
#61=FACE_OUTER_BOUND('',#81,.T.);
#62=FACE_OUTER_BOUND('',#82,.T.);
#63=FACE_OUTER_BOUND('',#83,.T.);
#64=FACE_OUTER_BOUND('',#84,.T.);
#65=FACE_OUTER_BOUND('',#86,.T.);
#66=FACE_OUTER_BOUND('',#88,.T.);
#67=FACE_OUTER_BOUND('',#90,.T.);
#68=FACE_OUTER_BOUND('',#92,.T.);
#69=FACE_OUTER_BOUND('',#94,.T.);
#70=EDGE_LOOP('',(#154));
#71=EDGE_LOOP('',(#155));
#72=EDGE_LOOP('',(#156));
#73=EDGE_LOOP('',(#157));
#74=EDGE_LOOP('',(#158));
#75=EDGE_LOOP('',(#159));
#76=EDGE_LOOP('',(#160));
#77=EDGE_LOOP('',(#161));
#78=EDGE_LOOP('',(#162));
#79=EDGE_LOOP('',(#163,#164,#165,#166));
#80=EDGE_LOOP('',(#167));
#81=EDGE_LOOP('',(#168,#169,#170,#171));
#82=EDGE_LOOP('',(#172,#173,#174,#175));
#83=EDGE_LOOP('',(#176,#177,#178,#179));
#84=EDGE_LOOP('',(#180,#181,#182,#183));
#85=EDGE_LOOP('',(#184));
#86=EDGE_LOOP('',(#185,#186,#187));
#87=EDGE_LOOP('',(#188));
#88=EDGE_LOOP('',(#189,#190,#191));
#89=EDGE_LOOP('',(#192));
#90=EDGE_LOOP('',(#193,#194,#195));
#91=EDGE_LOOP('',(#196));
#92=EDGE_LOOP('',(#197,#198,#199,#200));
#93=EDGE_LOOP('',(#201));
#94=EDGE_LOOP('',(#202,#203,#204));
#95=EDGE_LOOP('',(#205));
#96=CIRCLE('',#231,3.5);
#97=CIRCLE('',#232,3.5);
#98=CIRCLE('',#234,3.5);
#99=CIRCLE('',#235,3.5);
#100=CIRCLE('',#237,3.5);
#101=CIRCLE('',#238,3.5);
#102=CIRCLE('',#240,3.);
#103=CIRCLE('',#241,3.);
#104=CIRCLE('',#244,27.);
#105=CIRCLE('',#246,27.);
#106=CIRCLE('',#248,27.);
#107=CIRCLE('',#251,27.);
#108=CIRCLE('',#254,27.);
#109=CIRCLE('',#255,27.);
#110=VERTEX_POINT('',#339);
#111=VERTEX_POINT('',#341);
#112=VERTEX_POINT('',#344);
#113=VERTEX_POINT('',#346);
#114=VERTEX_POINT('',#349);
#115=VERTEX_POINT('',#351);
#116=VERTEX_POINT('',#354);
#117=VERTEX_POINT('',#356);
#118=VERTEX_POINT('',#360);
#119=VERTEX_POINT('',#361);
#120=VERTEX_POINT('',#363);
#121=VERTEX_POINT('',#365);
#122=VERTEX_POINT('',#369);
#123=VERTEX_POINT('',#370);
#124=VERTEX_POINT('',#373);
#125=VERTEX_POINT('',#377);
#126=VERTEX_POINT('',#384);
#127=VERTEX_POINT('',#388);
#128=EDGE_CURVE('',#110,#110,#96,.T.);
#129=EDGE_CURVE('',#111,#111,#97,.T.);
#130=EDGE_CURVE('',#112,#112,#98,.T.);
#131=EDGE_CURVE('',#113,#113,#99,.T.);
#132=EDGE_CURVE('',#114,#114,#100,.T.);
#133=EDGE_CURVE('',#115,#115,#101,.T.);
#134=EDGE_CURVE('',#116,#116,#102,.T.);
#135=EDGE_CURVE('',#117,#117,#103,.T.);
#136=EDGE_CURVE('',#118,#119,#18,.T.);
#137=EDGE_CURVE('',#119,#120,#19,.T.);
#138=EDGE_CURVE('',#120,#121,#104,.T.);
#139=EDGE_CURVE('',#121,#118,#20,.T.);
#140=EDGE_CURVE('',#122,#123,#105,.T.);
#141=EDGE_CURVE('',#122,#120,#15,.T.);
#142=EDGE_CURVE('',#124,#120,#106,.T.);
#143=EDGE_CURVE('',#123,#124,#16,.T.);
#144=EDGE_CURVE('',#122,#125,#107,.T.);
#145=EDGE_CURVE('',#121,#125,#17,.T.);
#146=EDGE_CURVE('',#121,#124,#108,.T.);
#147=EDGE_CURVE('',#125,#123,#109,.T.);
#148=EDGE_CURVE('',#126,#118,#21,.T.);
#149=EDGE_CURVE('',#126,#124,#22,.T.);
#150=EDGE_CURVE('',#127,#123,#23,.T.);
#151=EDGE_CURVE('',#127,#122,#24,.T.);
#152=EDGE_CURVE('',#125,#127,#25,.T.);
#153=EDGE_CURVE('',#119,#126,#26,.T.);
#154=ORIENTED_EDGE('',*,*,#128,.F.);
#155=ORIENTED_EDGE('',*,*,#129,.F.);
#156=ORIENTED_EDGE('',*,*,#130,.F.);
#157=ORIENTED_EDGE('',*,*,#131,.F.);
#158=ORIENTED_EDGE('',*,*,#132,.F.);
#159=ORIENTED_EDGE('',*,*,#133,.F.);
#160=ORIENTED_EDGE('',*,*,#134,.T.);
#161=ORIENTED_EDGE('',*,*,#135,.F.);
#162=ORIENTED_EDGE('',*,*,#134,.F.);
#163=ORIENTED_EDGE('',*,*,#136,.T.);
#164=ORIENTED_EDGE('',*,*,#137,.T.);
#165=ORIENTED_EDGE('',*,*,#138,.T.);
#166=ORIENTED_EDGE('',*,*,#139,.T.);
#167=ORIENTED_EDGE('',*,*,#131,.T.);
#168=ORIENTED_EDGE('',*,*,#140,.F.);
#169=ORIENTED_EDGE('',*,*,#141,.T.);
#170=ORIENTED_EDGE('',*,*,#142,.F.);
#171=ORIENTED_EDGE('',*,*,#143,.F.);
#172=ORIENTED_EDGE('',*,*,#138,.F.);
#173=ORIENTED_EDGE('',*,*,#141,.F.);
#174=ORIENTED_EDGE('',*,*,#144,.T.);
#175=ORIENTED_EDGE('',*,*,#145,.F.);
#176=ORIENTED_EDGE('',*,*,#146,.F.);
#177=ORIENTED_EDGE('',*,*,#145,.T.);
#178=ORIENTED_EDGE('',*,*,#147,.T.);
#179=ORIENTED_EDGE('',*,*,#143,.T.);
#180=ORIENTED_EDGE('',*,*,#148,.T.);
#181=ORIENTED_EDGE('',*,*,#139,.F.);
#182=ORIENTED_EDGE('',*,*,#146,.T.);
#183=ORIENTED_EDGE('',*,*,#149,.F.);
#184=ORIENTED_EDGE('',*,*,#133,.T.);
#185=ORIENTED_EDGE('',*,*,#140,.T.);
#186=ORIENTED_EDGE('',*,*,#150,.F.);
#187=ORIENTED_EDGE('',*,*,#151,.T.);
#188=ORIENTED_EDGE('',*,*,#128,.T.);
#189=ORIENTED_EDGE('',*,*,#144,.F.);
#190=ORIENTED_EDGE('',*,*,#151,.F.);
#191=ORIENTED_EDGE('',*,*,#152,.F.);
#192=ORIENTED_EDGE('',*,*,#130,.T.);
#193=ORIENTED_EDGE('',*,*,#147,.F.);
#194=ORIENTED_EDGE('',*,*,#152,.T.);
#195=ORIENTED_EDGE('',*,*,#150,.T.);
#196=ORIENTED_EDGE('',*,*,#132,.T.);
#197=ORIENTED_EDGE('',*,*,#153,.T.);
#198=ORIENTED_EDGE('',*,*,#149,.T.);
#199=ORIENTED_EDGE('',*,*,#142,.T.);
#200=ORIENTED_EDGE('',*,*,#137,.F.);
#201=ORIENTED_EDGE('',*,*,#129,.T.);
#202=ORIENTED_EDGE('',*,*,#136,.F.);
#203=ORIENTED_EDGE('',*,*,#148,.F.);
#204=ORIENTED_EDGE('',*,*,#153,.F.);
#205=ORIENTED_EDGE('',*,*,#135,.T.);
#206=CYLINDRICAL_SURFACE('',#230,3.5);
#207=CYLINDRICAL_SURFACE('',#233,3.5);
#208=CYLINDRICAL_SURFACE('',#236,3.5);
#209=CYLINDRICAL_SURFACE('',#239,3.);
#210=CYLINDRICAL_SURFACE('',#245,27.);
#211=CYLINDRICAL_SURFACE('',#250,27.);
#212=CYLINDRICAL_SURFACE('',#253,27.);
#213=ADVANCED_FACE('',(#55,#44),#206,.F.);
#214=ADVANCED_FACE('',(#56,#45),#207,.F.);
#215=ADVANCED_FACE('',(#57,#46),#208,.F.);
#216=ADVANCED_FACE('',(#58,#47),#209,.F.);
#217=ADVANCED_FACE('',(#59),#36,.T.);
#218=ADVANCED_FACE('',(#60,#48),#37,.F.);
#219=ADVANCED_FACE('',(#61),#210,.T.);
#220=ADVANCED_FACE('',(#62),#211,.T.);
#221=ADVANCED_FACE('',(#63),#212,.T.);
#222=ADVANCED_FACE('',(#64,#49),#38,.F.);
#223=ADVANCED_FACE('',(#65,#50),#39,.T.);
#224=ADVANCED_FACE('',(#66,#51),#40,.T.);
#225=ADVANCED_FACE('',(#67,#52),#41,.T.);
#226=ADVANCED_FACE('',(#68,#53),#42,.T.);
#227=ADVANCED_FACE('',(#69,#54),#43,.T.);
#228=CLOSED_SHELL('',(#213,#214,#215,#216,#217,#218,#219,#220,#221,#222,
#223,#224,#225,#226,#227));
#229=AXIS2_PLACEMENT_3D('placement',#337,#262,#263);
#230=AXIS2_PLACEMENT_3D('',#338,#264,#265);
#231=AXIS2_PLACEMENT_3D('',#340,#266,#267);
#232=AXIS2_PLACEMENT_3D('',#342,#268,#269);
#233=AXIS2_PLACEMENT_3D('',#343,#270,#271);
#234=AXIS2_PLACEMENT_3D('',#345,#272,#273);
#235=AXIS2_PLACEMENT_3D('',#347,#274,#275);
#236=AXIS2_PLACEMENT_3D('',#348,#276,#277);
#237=AXIS2_PLACEMENT_3D('',#350,#278,#279);
#238=AXIS2_PLACEMENT_3D('',#352,#280,#281);
#239=AXIS2_PLACEMENT_3D('',#353,#282,#283);
#240=AXIS2_PLACEMENT_3D('',#355,#284,#285);
#241=AXIS2_PLACEMENT_3D('',#357,#286,#287);
#242=AXIS2_PLACEMENT_3D('',#358,#288,#289);
#243=AXIS2_PLACEMENT_3D('',#359,#290,#291);
#244=AXIS2_PLACEMENT_3D('',#366,#294,#295);
#245=AXIS2_PLACEMENT_3D('',#368,#297,#298);
#246=AXIS2_PLACEMENT_3D('',#371,#299,#300);
#247=AXIS2_PLACEMENT_3D('',#372,#301,#302);
#248=AXIS2_PLACEMENT_3D('',#374,#303,#304);
#249=AXIS2_PLACEMENT_3D('',#375,#305,#306);
#250=AXIS2_PLACEMENT_3D('',#376,#307,#308);
#251=AXIS2_PLACEMENT_3D('',#378,#309,#310);
#252=AXIS2_PLACEMENT_3D('',#379,#311,#312);
#253=AXIS2_PLACEMENT_3D('',#380,#313,#314);
#254=AXIS2_PLACEMENT_3D('',#381,#315,#316);
#255=AXIS2_PLACEMENT_3D('',#382,#317,#318);
#256=AXIS2_PLACEMENT_3D('',#383,#319,#320);
#257=AXIS2_PLACEMENT_3D('',#387,#323,#324);
#258=AXIS2_PLACEMENT_3D('',#391,#327,#328);
#259=AXIS2_PLACEMENT_3D('',#393,#330,#331);
#260=AXIS2_PLACEMENT_3D('',#394,#332,#333);
#261=AXIS2_PLACEMENT_3D('',#396,#335,#336);
#262=DIRECTION('axis',(0.,0.,1.));
#263=DIRECTION('refdir',(1.,0.,0.));
#264=DIRECTION('center_axis',(-1.,0.,0.));
#265=DIRECTION('ref_axis',(0.,0.,1.));
#266=DIRECTION('center_axis',(1.,0.,0.));
#267=DIRECTION('ref_axis',(0.,0.,1.));
#268=DIRECTION('center_axis',(-1.,0.,0.));
#269=DIRECTION('ref_axis',(0.,0.,1.));
#270=DIRECTION('center_axis',(0.,0.,1.));
#271=DIRECTION('ref_axis',(1.,0.,0.));
#272=DIRECTION('center_axis',(0.,0.,-1.));
#273=DIRECTION('ref_axis',(1.,0.,0.));
#274=DIRECTION('center_axis',(0.,0.,1.));
#275=DIRECTION('ref_axis',(1.,0.,0.));
#276=DIRECTION('center_axis',(0.,-1.,0.));
#277=DIRECTION('ref_axis',(-1.,0.,0.));
#278=DIRECTION('center_axis',(0.,1.,0.));
#279=DIRECTION('ref_axis',(-1.,0.,0.));
#280=DIRECTION('center_axis',(0.,-1.,0.));
#281=DIRECTION('ref_axis',(-1.,0.,0.));
#282=DIRECTION('center_axis',(-0.577350269189626,-0.577350269189626,0.577350269189626));
#283=DIRECTION('ref_axis',(0.408248290463863,0.408248290463863,0.816496580927726));
#284=DIRECTION('center_axis',(-0.577350269189626,-0.577350269189626,0.577350269189626));
#285=DIRECTION('ref_axis',(0.408248290463863,0.408248290463863,0.816496580927726));
#286=DIRECTION('center_axis',(-0.577350269189626,-0.577350269189626,0.577350269189626));
#287=DIRECTION('ref_axis',(0.408248290463863,0.408248290463863,0.816496580927726));
#288=DIRECTION('center_axis',(0.577350269189626,0.577350269189626,-0.577350269189626));
#289=DIRECTION('ref_axis',(-0.707106781186547,0.,-0.707106781186548));
#290=DIRECTION('center_axis',(0.,0.,1.));
#291=DIRECTION('ref_axis',(1.,0.,0.));
#292=DIRECTION('',(-0.707106781186547,0.707106781186548,0.));
#293=DIRECTION('',(0.,1.,0.));
#294=DIRECTION('center_axis',(0.,0.,-1.));
#295=DIRECTION('ref_axis',(-1.,8.22387425648264E-17,0.));
#296=DIRECTION('',(-1.,0.,0.));
#297=DIRECTION('center_axis',(1.,0.,0.));
#298=DIRECTION('ref_axis',(0.,-2.23922957222012E-16,1.));
#299=DIRECTION('center_axis',(-1.,0.,0.));
#300=DIRECTION('ref_axis',(0.,-2.23922957222012E-16,1.));
#301=DIRECTION('center_axis',(-0.707106781186548,0.,-0.707106781186548));
#302=DIRECTION('ref_axis',(-0.707106781186547,-1.5833744151503E-16,0.707106781186547));
#303=DIRECTION('center_axis',(1.,0.,0.));
#304=DIRECTION('ref_axis',(0.,-2.23922957222012E-16,1.));
#305=DIRECTION('center_axis',(0.707106781186548,-0.707106781186548,0.));
#306=DIRECTION('ref_axis',(0.707106781186547,0.707106781186547,5.81515725438435E-17));
#307=DIRECTION('center_axis',(0.,0.,-1.));
#308=DIRECTION('ref_axis',(-1.,8.22387425648264E-17,0.));
#309=DIRECTION('center_axis',(0.,0.,-1.));
#310=DIRECTION('ref_axis',(-1.,8.22387425648264E-17,0.));
#311=DIRECTION('center_axis',(0.,-0.707106781186548,-0.707106781186548));
#312=DIRECTION('ref_axis',(5.81515725438435E-17,0.707106781186547,-0.707106781186547));
#313=DIRECTION('center_axis',(0.,1.,0.));
#314=DIRECTION('ref_axis',(1.,0.,8.22387425648264E-17));
#315=DIRECTION('center_axis',(0.,1.,0.));
#316=DIRECTION('ref_axis',(1.,0.,8.22387425648264E-17));
#317=DIRECTION('center_axis',(0.,1.,0.));
#318=DIRECTION('ref_axis',(1.,0.,8.22387425648264E-17));
#319=DIRECTION('center_axis',(0.,-1.,0.));
#320=DIRECTION('ref_axis',(0.,0.,-1.));
#321=DIRECTION('',(0.707106781186547,0.,0.707106781186548));
#322=DIRECTION('',(0.,0.,-1.));
#323=DIRECTION('center_axis',(-1.,0.,0.));
#324=DIRECTION('ref_axis',(0.,1.,0.));
#325=DIRECTION('',(0.,0.,-1.));
#326=DIRECTION('',(0.,1.,0.));
#327=DIRECTION('center_axis',(0.,0.,1.));
#328=DIRECTION('ref_axis',(1.,0.,0.));
#329=DIRECTION('',(-1.,0.,0.));
#330=DIRECTION('center_axis',(0.,-1.,0.));
#331=DIRECTION('ref_axis',(-1.,0.,0.));
#332=DIRECTION('center_axis',(1.,0.,0.));
#333=DIRECTION('ref_axis',(0.,0.,-1.));
#334=DIRECTION('',(0.,-0.707106781186548,-0.707106781186547));
#335=DIRECTION('center_axis',(0.577350269189626,0.577350269189626,-0.577350269189626));
#336=DIRECTION('ref_axis',(-0.707106781186547,0.,-0.707106781186548));
#337=CARTESIAN_POINT('',(0.,0.,0.));
#338=CARTESIAN_POINT('Origin',(4.,15.,-15.));
#339=CARTESIAN_POINT('',(0.,15.,-18.5));
#340=CARTESIAN_POINT('Origin',(0.,15.,-15.));
#341=CARTESIAN_POINT('',(4.,15.,-18.5));
#342=CARTESIAN_POINT('Origin',(4.,15.,-15.));
#343=CARTESIAN_POINT('Origin',(15.,15.,-4.));
#344=CARTESIAN_POINT('',(11.5,15.,0.));
#345=CARTESIAN_POINT('Origin',(15.,15.,0.));
#346=CARTESIAN_POINT('',(11.5,15.,-4.));
#347=CARTESIAN_POINT('Origin',(15.,15.,-4.));
#348=CARTESIAN_POINT('Origin',(15.,4.,-15.));
#349=CARTESIAN_POINT('',(18.5,0.,-15.));
#350=CARTESIAN_POINT('Origin',(15.,0.,-15.));
#351=CARTESIAN_POINT('',(18.5,4.,-15.));
#352=CARTESIAN_POINT('Origin',(15.,4.,-15.));
#353=CARTESIAN_POINT('Origin',(7.90068661521246,7.90068661521246,-7.90068661521246));
#354=CARTESIAN_POINT('',(2.05713959030387,2.05713959030387,-5.73137420447863));
#355=CARTESIAN_POINT('Origin',(3.28188446169545,3.28188446169545,-3.28188446169545));
#356=CARTESIAN_POINT('',(6.67594174382088,6.67594174382087,-10.3501763579956));
#357=CARTESIAN_POINT('Origin',(7.90068661521246,7.90068661521246,-7.90068661521246));
#358=CARTESIAN_POINT('Origin',(3.28188446169546,3.28188446169546,-3.28188446169545));
#359=CARTESIAN_POINT('Origin',(10.6195650604908,10.6195650604908,-4.));
#360=CARTESIAN_POINT('',(15.7020598456374,4.,-4.));
#361=CARTESIAN_POINT('',(4.,15.7020598456374,-4.));
#362=CARTESIAN_POINT('',(12.776544884228,6.92551496140934,-4.));
#363=CARTESIAN_POINT('',(4.,26.7020598456374,-4.));
#364=CARTESIAN_POINT('',(4.,10.6195650604908,-4.));
#365=CARTESIAN_POINT('',(26.7020598456374,4.,-4.));
#366=CARTESIAN_POINT('Origin',(2.22044604925031E-15,2.22044604925031E-15,
-4.));
#367=CARTESIAN_POINT('',(10.6195650604908,4.,-4.));
#368=CARTESIAN_POINT('Origin',(0.,2.22044604925031E-15,-2.22044604925031E-15));
#369=CARTESIAN_POINT('',(0.,27.,0.));
#370=CARTESIAN_POINT('',(0.,8.26636589424463E-15,-27.));
#371=CARTESIAN_POINT('Origin',(0.,2.22044604925031E-15,-2.22044604925031E-15));
#372=CARTESIAN_POINT('Origin',(2.22044604925031E-15,2.22044604925031E-15,
-2.22044604925031E-15));
#373=CARTESIAN_POINT('',(4.,4.,-26.7020598456374));
#374=CARTESIAN_POINT('Origin',(4.,2.22044604925031E-15,-2.22044604925031E-15));
#375=CARTESIAN_POINT('Origin',(2.22044604925031E-15,2.22044604925031E-15,
-2.22044604925031E-15));
#376=CARTESIAN_POINT('Origin',(2.22044604925031E-15,2.22044604925031E-15,
0.));
#377=CARTESIAN_POINT('',(27.,0.,0.));
#378=CARTESIAN_POINT('Origin',(2.22044604925031E-15,2.22044604925031E-15,
0.));
#379=CARTESIAN_POINT('Origin',(2.22044604925031E-15,2.22044604925031E-15,
-2.22044604925031E-15));
#380=CARTESIAN_POINT('Origin',(2.22044604925031E-15,0.,-2.22044604925031E-15));
#381=CARTESIAN_POINT('Origin',(2.22044604925031E-15,4.,-2.22044604925031E-15));
#382=CARTESIAN_POINT('Origin',(2.22044604925031E-15,0.,-2.22044604925031E-15));
#383=CARTESIAN_POINT('Origin',(10.6195650604908,4.,-10.6195650604908));
#384=CARTESIAN_POINT('',(4.,4.,-15.7020598456374));
#385=CARTESIAN_POINT('',(6.92551496140934,4.,-12.776544884228));
#386=CARTESIAN_POINT('',(4.,4.,-10.6195650604908));
#387=CARTESIAN_POINT('Origin',(0.,0.,0.));
#388=CARTESIAN_POINT('',(0.,0.,0.));
#389=CARTESIAN_POINT('',(0.,0.,0.));
#390=CARTESIAN_POINT('',(0.,0.,0.));
#391=CARTESIAN_POINT('Origin',(10.6195650604908,10.6195650604908,0.));
#392=CARTESIAN_POINT('',(27.,0.,0.));
#393=CARTESIAN_POINT('Origin',(27.,0.,0.));
#394=CARTESIAN_POINT('Origin',(4.,10.6195650604908,-10.6195650604908));
#395=CARTESIAN_POINT('',(4.,12.776544884228,-6.92551496140934));
#396=CARTESIAN_POINT('Origin',(7.90068661521246,7.90068661521246,-7.90068661521246));
#397=UNCERTAINTY_MEASURE_WITH_UNIT(LENGTH_MEASURE(0.01),#401,
'DISTANCE_ACCURACY_VALUE',
'Maximum model space distance between geometric entities at asserted c
onnectivities');
#398=UNCERTAINTY_MEASURE_WITH_UNIT(LENGTH_MEASURE(1.E-6),#401,
'DISTANCE_ACCURACY_VALUE',
'Maximum model space distance between geometric entities at asserted c
onnectivities');
#399=(
GEOMETRIC_REPRESENTATION_CONTEXT(3)
GLOBAL_UNCERTAINTY_ASSIGNED_CONTEXT((#397))
GLOBAL_UNIT_ASSIGNED_CONTEXT((#401,#404,#402))
REPRESENTATION_CONTEXT('','3D')
);
#400=(
GEOMETRIC_REPRESENTATION_CONTEXT(3)
GLOBAL_UNCERTAINTY_ASSIGNED_CONTEXT((#398))
GLOBAL_UNIT_ASSIGNED_CONTEXT((#401,#404,#402))
REPRESENTATION_CONTEXT('','3D')
);
#401=(
LENGTH_UNIT()
NAMED_UNIT(*)
SI_UNIT(.MILLI.,.METRE.)
);
#402=(
NAMED_UNIT(*)
SI_UNIT($,.STERADIAN.)
SOLID_ANGLE_UNIT()
);
#403=DIMENSIONAL_EXPONENTS(0.,0.,0.,0.,0.,0.,0.);
#404=(
CONVERSION_BASED_UNIT('degree',#406)
NAMED_UNIT(#403)
PLANE_ANGLE_UNIT()
);
#405=(
NAMED_UNIT(*)
PLANE_ANGLE_UNIT()
SI_UNIT($,.RADIAN.)
);
#406=PLANE_ANGLE_MEASURE_WITH_UNIT(PLANE_ANGLE_MEASURE(0.01745329252),#405);
#407=SHAPE_DEFINITION_REPRESENTATION(#408,#409);
#408=PRODUCT_DEFINITION_SHAPE('',$,#411);
#409=SHAPE_REPRESENTATION('',(#229),#399);
#410=PRODUCT_DEFINITION_CONTEXT('part definition',#415,'design');
#411=PRODUCT_DEFINITION('DCB3030R','DCB3030R',#412,#410);
#412=PRODUCT_DEFINITION_FORMATION('',$,#417);
#413=PRODUCT_RELATED_PRODUCT_CATEGORY('DCB3030R','DCB3030R',(#417));
#414=APPLICATION_PROTOCOL_DEFINITION('international standard',
'automotive_design',2009,#415);
#415=APPLICATION_CONTEXT(
'Core Data for Automotive Mechanical Design Process');
#416=PRODUCT_CONTEXT('part definition',#415,'mechanical');
#417=PRODUCT('DCB3030R','DCB3030R',$,(#416));
#418=PRESENTATION_STYLE_ASSIGNMENT((#419));
#419=SURFACE_STYLE_USAGE(.BOTH.,#420);
#420=SURFACE_SIDE_STYLE($,(#421));
#421=SURFACE_STYLE_FILL_AREA(#422);
#422=FILL_AREA_STYLE($,(#423));
#423=FILL_AREA_STYLE_COLOUR($,#424);
#424=COLOUR_RGB('',0.749019607843137,0.749019607843137,0.749019607843137);
ENDSEC;
END-ISO-10303-21;
