ISO-10303-21;
HEADER;
/* Generated by software containing ST-Developer
 * from STEP Tools, Inc. (www.steptools.com) 
 */

FILE_DESCRIPTION(
/* description */ (''),
/* implementation_level */ '2;1');

FILE_NAME(
/* name */ 
'C:\\Users\\1091212-1\\Desktop\\M6\X2\7CFB5217\X0\-\X2\914D4EF6\X0\\\\X2\7B2C
4E009801\X0\\\DAL3025\\DAL3025-6.stp',
/* time_stamp */ '2024-10-14T15:52:56+08:00',
/* author */ ('1091212-1'),
/* organization */ (''),
/* preprocessor_version */ 'ST-DEVELOPER v15.6',
/* originating_system */ 'Autodesk Inventor 2015',
/* authorisation */ '');

FILE_SCHEMA (('AUTOMOTIVE_DESIGN { 1 0 10303 214 3 1 1 }'));
ENDSEC;

DATA;
#10=MECHANICAL_DESIGN_GEOMETRIC_PRESENTATION_REPRESENTATION('',(#13),#584);
#11=SHAPE_REPRESENTATION_RELATIONSHIP('SRR','None',#593,#12);
#12=ADVANCED_BREP_SHAPE_REPRESENTATION($,(#14),#583);
#13=STYLED_ITEM('',(#602),#14);
#14=MANIFOLD_SOLID_BREP('\X2\5BE69AD4\X0\1',#350);
#15=FACE_BOUND('',#70,.T.);
#16=FACE_BOUND('',#72,.T.);
#17=CYLINDRICAL_SURFACE('',#357,5.);
#18=CYLINDRICAL_SURFACE('',#362,5.);
#19=CYLINDRICAL_SURFACE('',#365,3.5);
#20=CYLINDRICAL_SURFACE('',#370,3.5);
#21=CYLINDRICAL_SURFACE('',#374,3.5);
#22=CYLINDRICAL_SURFACE('',#377,3.5);
#23=CIRCLE('',#354,3.5);
#24=CIRCLE('',#355,3.5);
#25=CIRCLE('',#356,3.5);
#26=CIRCLE('',#358,5.);
#27=CIRCLE('',#359,5.);
#28=CIRCLE('',#361,5.);
#29=CIRCLE('',#363,5.);
#30=CIRCLE('',#366,3.5);
#31=CIRCLE('',#367,3.5);
#32=CIRCLE('',#368,3.5);
#33=CIRCLE('',#371,3.5);
#34=CIRCLE('',#372,3.5);
#35=CIRCLE('',#375,3.5);
#36=CIRCLE('',#378,3.5);
#37=FACE_OUTER_BOUND('',#54,.T.);
#38=FACE_OUTER_BOUND('',#55,.T.);
#39=FACE_OUTER_BOUND('',#56,.T.);
#40=FACE_OUTER_BOUND('',#57,.T.);
#41=FACE_OUTER_BOUND('',#58,.T.);
#42=FACE_OUTER_BOUND('',#59,.T.);
#43=FACE_OUTER_BOUND('',#60,.T.);
#44=FACE_OUTER_BOUND('',#61,.T.);
#45=FACE_OUTER_BOUND('',#62,.T.);
#46=FACE_OUTER_BOUND('',#63,.T.);
#47=FACE_OUTER_BOUND('',#64,.T.);
#48=FACE_OUTER_BOUND('',#65,.T.);
#49=FACE_OUTER_BOUND('',#66,.T.);
#50=FACE_OUTER_BOUND('',#67,.T.);
#51=FACE_OUTER_BOUND('',#68,.T.);
#52=FACE_OUTER_BOUND('',#69,.T.);
#53=FACE_OUTER_BOUND('',#71,.T.);
#54=EDGE_LOOP('',(#224,#225,#226,#227));
#55=EDGE_LOOP('',(#228,#229,#230,#231,#232,#233,#234,#235,#236,#237));
#56=EDGE_LOOP('',(#238,#239,#240,#241,#242));
#57=EDGE_LOOP('',(#243,#244,#245,#246,#247,#248,#249));
#58=EDGE_LOOP('',(#250,#251,#252,#253,#254));
#59=EDGE_LOOP('',(#255,#256,#257,#258,#259,#260,#261));
#60=EDGE_LOOP('',(#262,#263,#264,#265,#266));
#61=EDGE_LOOP('',(#267,#268,#269,#270));
#62=EDGE_LOOP('',(#271,#272,#273,#274));
#63=EDGE_LOOP('',(#275,#276,#277,#278));
#64=EDGE_LOOP('',(#279,#280,#281,#282));
#65=EDGE_LOOP('',(#283,#284,#285,#286));
#66=EDGE_LOOP('',(#287,#288,#289,#290,#291));
#67=EDGE_LOOP('',(#292,#293,#294,#295));
#68=EDGE_LOOP('',(#296,#297,#298,#299,#300,#301,#302,#303,#304,#305));
#69=EDGE_LOOP('',(#306,#307,#308,#309));
#70=EDGE_LOOP('',(#310,#311,#312,#313));
#71=EDGE_LOOP('',(#314,#315,#316,#317));
#72=EDGE_LOOP('',(#318,#319,#320,#321));
#73=LINE('',#486,#108);
#74=LINE('',#488,#109);
#75=LINE('',#490,#110);
#76=LINE('',#491,#111);
#77=LINE('',#494,#112);
#78=LINE('',#496,#113);
#79=LINE('',#500,#114);
#80=LINE('',#504,#115);
#81=LINE('',#507,#116);
#82=LINE('',#508,#117);
#83=LINE('',#514,#118);
#84=LINE('',#517,#119);
#85=LINE('',#519,#120);
#86=LINE('',#522,#121);
#87=LINE('',#525,#122);
#88=LINE('',#529,#123);
#89=LINE('',#530,#124);
#90=LINE('',#532,#125);
#91=LINE('',#534,#126);
#92=LINE('',#535,#127);
#93=LINE('',#541,#128);
#94=LINE('',#545,#129);
#95=LINE('',#548,#130);
#96=LINE('',#550,#131);
#97=LINE('',#551,#132);
#98=LINE('',#557,#133);
#99=LINE('',#559,#134);
#100=LINE('',#560,#135);
#101=LINE('',#565,#136);
#102=LINE('',#566,#137);
#103=LINE('',#569,#138);
#104=LINE('',#570,#139);
#105=LINE('',#574,#140);
#106=LINE('',#576,#141);
#107=LINE('',#579,#142);
#108=VECTOR('',#387,4.24264068711929);
#109=VECTOR('',#388,25.);
#110=VECTOR('',#389,4.24264068711929);
#111=VECTOR('',#390,25.);
#112=VECTOR('',#393,17.);
#113=VECTOR('',#394,12.5);
#114=VECTOR('',#397,4.);
#115=VECTOR('',#400,4.);
#116=VECTOR('',#403,12.5);
#117=VECTOR('',#404,17.);
#118=VECTOR('',#411,25.);
#119=VECTOR('',#414,30.);
#120=VECTOR('',#415,30.);
#121=VECTOR('',#418,17.);
#122=VECTOR('',#421,25.);
#123=VECTOR('',#424,12.5);
#124=VECTOR('',#425,12.5);
#125=VECTOR('',#428,17.);
#126=VECTOR('',#429,30.);
#127=VECTOR('',#430,30.);
#128=VECTOR('',#435,5.);
#129=VECTOR('',#440,5.);
#130=VECTOR('',#443,4.);
#131=VECTOR('',#444,4.);
#132=VECTOR('',#445,5.);
#133=VECTOR('',#452,5.);
#134=VECTOR('',#455,4.);
#135=VECTOR('',#456,4.);
#136=VECTOR('',#461,5.);
#137=VECTOR('',#462,5.);
#138=VECTOR('',#465,4.);
#139=VECTOR('',#466,5.);
#140=VECTOR('',#471,5.);
#141=VECTOR('',#474,4.);
#142=VECTOR('',#479,25.);
#143=VERTEX_POINT('',#484);
#144=VERTEX_POINT('',#485);
#145=VERTEX_POINT('',#487);
#146=VERTEX_POINT('',#489);
#147=VERTEX_POINT('',#493);
#148=VERTEX_POINT('',#495);
#149=VERTEX_POINT('',#497);
#150=VERTEX_POINT('',#499);
#151=VERTEX_POINT('',#501);
#152=VERTEX_POINT('',#503);
#153=VERTEX_POINT('',#506);
#154=VERTEX_POINT('',#510);
#155=VERTEX_POINT('',#512);
#156=VERTEX_POINT('',#516);
#157=VERTEX_POINT('',#518);
#158=VERTEX_POINT('',#520);
#159=VERTEX_POINT('',#524);
#160=VERTEX_POINT('',#526);
#161=VERTEX_POINT('',#528);
#162=VERTEX_POINT('',#533);
#163=VERTEX_POINT('',#537);
#164=VERTEX_POINT('',#538);
#165=VERTEX_POINT('',#540);
#166=VERTEX_POINT('',#543);
#167=VERTEX_POINT('',#547);
#168=VERTEX_POINT('',#549);
#169=VERTEX_POINT('',#553);
#170=VERTEX_POINT('',#555);
#171=VERTEX_POINT('',#562);
#172=VERTEX_POINT('',#563);
#173=VERTEX_POINT('',#568);
#174=VERTEX_POINT('',#572);
#175=EDGE_CURVE('',#143,#144,#73,.T.);
#176=EDGE_CURVE('',#144,#145,#74,.T.);
#177=EDGE_CURVE('',#145,#146,#75,.T.);
#178=EDGE_CURVE('',#146,#143,#76,.T.);
#179=EDGE_CURVE('',#147,#144,#77,.T.);
#180=EDGE_CURVE('',#148,#147,#78,.T.);
#181=EDGE_CURVE('',#148,#149,#23,.T.);
#182=EDGE_CURVE('',#149,#150,#79,.T.);
#183=EDGE_CURVE('',#150,#151,#24,.T.);
#184=EDGE_CURVE('',#151,#152,#80,.T.);
#185=EDGE_CURVE('',#152,#148,#25,.T.);
#186=EDGE_CURVE('',#153,#148,#81,.T.);
#187=EDGE_CURVE('',#145,#153,#82,.T.);
#188=EDGE_CURVE('',#154,#153,#26,.T.);
#189=EDGE_CURVE('',#147,#155,#27,.T.);
#190=EDGE_CURVE('',#155,#154,#83,.T.);
#191=EDGE_CURVE('',#154,#156,#84,.T.);
#192=EDGE_CURVE('',#156,#157,#85,.T.);
#193=EDGE_CURVE('',#158,#157,#28,.T.);
#194=EDGE_CURVE('',#158,#146,#86,.T.);
#195=EDGE_CURVE('',#159,#157,#87,.T.);
#196=EDGE_CURVE('',#159,#160,#29,.T.);
#197=EDGE_CURVE('',#160,#161,#88,.T.);
#198=EDGE_CURVE('',#161,#158,#89,.T.);
#199=EDGE_CURVE('',#143,#160,#90,.T.);
#200=EDGE_CURVE('',#159,#162,#91,.T.);
#201=EDGE_CURVE('',#162,#155,#92,.T.);
#202=EDGE_CURVE('',#163,#164,#30,.T.);
#203=EDGE_CURVE('',#165,#163,#93,.T.);
#204=EDGE_CURVE('',#161,#165,#31,.T.);
#205=EDGE_CURVE('',#166,#161,#32,.T.);
#206=EDGE_CURVE('',#166,#164,#94,.T.);
#207=EDGE_CURVE('',#164,#167,#95,.T.);
#208=EDGE_CURVE('',#168,#166,#96,.T.);
#209=EDGE_CURVE('',#168,#167,#97,.T.);
#210=EDGE_CURVE('',#167,#169,#33,.T.);
#211=EDGE_CURVE('',#170,#168,#34,.T.);
#212=EDGE_CURVE('',#170,#169,#98,.T.);
#213=EDGE_CURVE('',#169,#163,#99,.T.);
#214=EDGE_CURVE('',#165,#170,#100,.T.);
#215=EDGE_CURVE('',#171,#172,#35,.T.);
#216=EDGE_CURVE('',#151,#171,#101,.T.);
#217=EDGE_CURVE('',#150,#172,#102,.T.);
#218=EDGE_CURVE('',#172,#173,#103,.T.);
#219=EDGE_CURVE('',#149,#173,#104,.T.);
#220=EDGE_CURVE('',#173,#174,#36,.T.);
#221=EDGE_CURVE('',#152,#174,#105,.T.);
#222=EDGE_CURVE('',#174,#171,#106,.T.);
#223=EDGE_CURVE('',#156,#162,#107,.T.);
#224=ORIENTED_EDGE('',*,*,#175,.T.);
#225=ORIENTED_EDGE('',*,*,#176,.T.);
#226=ORIENTED_EDGE('',*,*,#177,.T.);
#227=ORIENTED_EDGE('',*,*,#178,.T.);
#228=ORIENTED_EDGE('',*,*,#176,.F.);
#229=ORIENTED_EDGE('',*,*,#179,.F.);
#230=ORIENTED_EDGE('',*,*,#180,.F.);
#231=ORIENTED_EDGE('',*,*,#181,.T.);
#232=ORIENTED_EDGE('',*,*,#182,.T.);
#233=ORIENTED_EDGE('',*,*,#183,.T.);
#234=ORIENTED_EDGE('',*,*,#184,.T.);
#235=ORIENTED_EDGE('',*,*,#185,.T.);
#236=ORIENTED_EDGE('',*,*,#186,.F.);
#237=ORIENTED_EDGE('',*,*,#187,.F.);
#238=ORIENTED_EDGE('',*,*,#188,.T.);
#239=ORIENTED_EDGE('',*,*,#186,.T.);
#240=ORIENTED_EDGE('',*,*,#180,.T.);
#241=ORIENTED_EDGE('',*,*,#189,.T.);
#242=ORIENTED_EDGE('',*,*,#190,.T.);
#243=ORIENTED_EDGE('',*,*,#188,.F.);
#244=ORIENTED_EDGE('',*,*,#191,.T.);
#245=ORIENTED_EDGE('',*,*,#192,.T.);
#246=ORIENTED_EDGE('',*,*,#193,.F.);
#247=ORIENTED_EDGE('',*,*,#194,.T.);
#248=ORIENTED_EDGE('',*,*,#177,.F.);
#249=ORIENTED_EDGE('',*,*,#187,.T.);
#250=ORIENTED_EDGE('',*,*,#193,.T.);
#251=ORIENTED_EDGE('',*,*,#195,.F.);
#252=ORIENTED_EDGE('',*,*,#196,.T.);
#253=ORIENTED_EDGE('',*,*,#197,.T.);
#254=ORIENTED_EDGE('',*,*,#198,.T.);
#255=ORIENTED_EDGE('',*,*,#189,.F.);
#256=ORIENTED_EDGE('',*,*,#179,.T.);
#257=ORIENTED_EDGE('',*,*,#175,.F.);
#258=ORIENTED_EDGE('',*,*,#199,.T.);
#259=ORIENTED_EDGE('',*,*,#196,.F.);
#260=ORIENTED_EDGE('',*,*,#200,.T.);
#261=ORIENTED_EDGE('',*,*,#201,.T.);
#262=ORIENTED_EDGE('',*,*,#202,.F.);
#263=ORIENTED_EDGE('',*,*,#203,.F.);
#264=ORIENTED_EDGE('',*,*,#204,.F.);
#265=ORIENTED_EDGE('',*,*,#205,.F.);
#266=ORIENTED_EDGE('',*,*,#206,.T.);
#267=ORIENTED_EDGE('',*,*,#207,.F.);
#268=ORIENTED_EDGE('',*,*,#206,.F.);
#269=ORIENTED_EDGE('',*,*,#208,.F.);
#270=ORIENTED_EDGE('',*,*,#209,.T.);
#271=ORIENTED_EDGE('',*,*,#210,.F.);
#272=ORIENTED_EDGE('',*,*,#209,.F.);
#273=ORIENTED_EDGE('',*,*,#211,.F.);
#274=ORIENTED_EDGE('',*,*,#212,.T.);
#275=ORIENTED_EDGE('',*,*,#213,.F.);
#276=ORIENTED_EDGE('',*,*,#212,.F.);
#277=ORIENTED_EDGE('',*,*,#214,.F.);
#278=ORIENTED_EDGE('',*,*,#203,.T.);
#279=ORIENTED_EDGE('',*,*,#215,.F.);
#280=ORIENTED_EDGE('',*,*,#216,.F.);
#281=ORIENTED_EDGE('',*,*,#183,.F.);
#282=ORIENTED_EDGE('',*,*,#217,.T.);
#283=ORIENTED_EDGE('',*,*,#218,.F.);
#284=ORIENTED_EDGE('',*,*,#217,.F.);
#285=ORIENTED_EDGE('',*,*,#182,.F.);
#286=ORIENTED_EDGE('',*,*,#219,.T.);
#287=ORIENTED_EDGE('',*,*,#220,.F.);
#288=ORIENTED_EDGE('',*,*,#219,.F.);
#289=ORIENTED_EDGE('',*,*,#181,.F.);
#290=ORIENTED_EDGE('',*,*,#185,.F.);
#291=ORIENTED_EDGE('',*,*,#221,.T.);
#292=ORIENTED_EDGE('',*,*,#222,.F.);
#293=ORIENTED_EDGE('',*,*,#221,.F.);
#294=ORIENTED_EDGE('',*,*,#184,.F.);
#295=ORIENTED_EDGE('',*,*,#216,.T.);
#296=ORIENTED_EDGE('',*,*,#178,.F.);
#297=ORIENTED_EDGE('',*,*,#194,.F.);
#298=ORIENTED_EDGE('',*,*,#198,.F.);
#299=ORIENTED_EDGE('',*,*,#204,.T.);
#300=ORIENTED_EDGE('',*,*,#214,.T.);
#301=ORIENTED_EDGE('',*,*,#211,.T.);
#302=ORIENTED_EDGE('',*,*,#208,.T.);
#303=ORIENTED_EDGE('',*,*,#205,.T.);
#304=ORIENTED_EDGE('',*,*,#197,.F.);
#305=ORIENTED_EDGE('',*,*,#199,.F.);
#306=ORIENTED_EDGE('',*,*,#190,.F.);
#307=ORIENTED_EDGE('',*,*,#201,.F.);
#308=ORIENTED_EDGE('',*,*,#223,.F.);
#309=ORIENTED_EDGE('',*,*,#191,.F.);
#310=ORIENTED_EDGE('',*,*,#220,.T.);
#311=ORIENTED_EDGE('',*,*,#222,.T.);
#312=ORIENTED_EDGE('',*,*,#215,.T.);
#313=ORIENTED_EDGE('',*,*,#218,.T.);
#314=ORIENTED_EDGE('',*,*,#223,.T.);
#315=ORIENTED_EDGE('',*,*,#200,.F.);
#316=ORIENTED_EDGE('',*,*,#195,.T.);
#317=ORIENTED_EDGE('',*,*,#192,.F.);
#318=ORIENTED_EDGE('',*,*,#210,.T.);
#319=ORIENTED_EDGE('',*,*,#213,.T.);
#320=ORIENTED_EDGE('',*,*,#202,.T.);
#321=ORIENTED_EDGE('',*,*,#207,.T.);
#322=PLANE('',#352);
#323=PLANE('',#353);
#324=PLANE('',#360);
#325=PLANE('',#364);
#326=PLANE('',#369);
#327=PLANE('',#373);
#328=PLANE('',#376);
#329=PLANE('',#379);
#330=PLANE('',#380);
#331=PLANE('',#381);
#332=PLANE('',#382);
#333=ADVANCED_FACE('',(#37),#322,.T.);
#334=ADVANCED_FACE('',(#38),#323,.T.);
#335=ADVANCED_FACE('',(#39),#17,.T.);
#336=ADVANCED_FACE('',(#40),#324,.T.);
#337=ADVANCED_FACE('',(#41),#18,.T.);
#338=ADVANCED_FACE('',(#42),#325,.T.);
#339=ADVANCED_FACE('',(#43),#19,.F.);
#340=ADVANCED_FACE('',(#44),#326,.F.);
#341=ADVANCED_FACE('',(#45),#20,.F.);
#342=ADVANCED_FACE('',(#46),#327,.F.);
#343=ADVANCED_FACE('',(#47),#21,.F.);
#344=ADVANCED_FACE('',(#48),#328,.F.);
#345=ADVANCED_FACE('',(#49),#22,.F.);
#346=ADVANCED_FACE('',(#50),#329,.F.);
#347=ADVANCED_FACE('',(#51),#330,.T.);
#348=ADVANCED_FACE('',(#52,#15),#331,.T.);
#349=ADVANCED_FACE('',(#53,#16),#332,.T.);
#350=CLOSED_SHELL('',(#333,#334,#335,#336,#337,#338,#339,#340,#341,#342,
#343,#344,#345,#346,#347,#348,#349));
#351=AXIS2_PLACEMENT_3D('placement',#482,#383,#384);
#352=AXIS2_PLACEMENT_3D('',#483,#385,#386);
#353=AXIS2_PLACEMENT_3D('',#492,#391,#392);
#354=AXIS2_PLACEMENT_3D('',#498,#395,#396);
#355=AXIS2_PLACEMENT_3D('',#502,#398,#399);
#356=AXIS2_PLACEMENT_3D('',#505,#401,#402);
#357=AXIS2_PLACEMENT_3D('',#509,#405,#406);
#358=AXIS2_PLACEMENT_3D('',#511,#407,#408);
#359=AXIS2_PLACEMENT_3D('',#513,#409,#410);
#360=AXIS2_PLACEMENT_3D('',#515,#412,#413);
#361=AXIS2_PLACEMENT_3D('',#521,#416,#417);
#362=AXIS2_PLACEMENT_3D('',#523,#419,#420);
#363=AXIS2_PLACEMENT_3D('',#527,#422,#423);
#364=AXIS2_PLACEMENT_3D('',#531,#426,#427);
#365=AXIS2_PLACEMENT_3D('',#536,#431,#432);
#366=AXIS2_PLACEMENT_3D('',#539,#433,#434);
#367=AXIS2_PLACEMENT_3D('',#542,#436,#437);
#368=AXIS2_PLACEMENT_3D('',#544,#438,#439);
#369=AXIS2_PLACEMENT_3D('',#546,#441,#442);
#370=AXIS2_PLACEMENT_3D('',#552,#446,#447);
#371=AXIS2_PLACEMENT_3D('',#554,#448,#449);
#372=AXIS2_PLACEMENT_3D('',#556,#450,#451);
#373=AXIS2_PLACEMENT_3D('',#558,#453,#454);
#374=AXIS2_PLACEMENT_3D('',#561,#457,#458);
#375=AXIS2_PLACEMENT_3D('',#564,#459,#460);
#376=AXIS2_PLACEMENT_3D('',#567,#463,#464);
#377=AXIS2_PLACEMENT_3D('',#571,#467,#468);
#378=AXIS2_PLACEMENT_3D('',#573,#469,#470);
#379=AXIS2_PLACEMENT_3D('',#575,#472,#473);
#380=AXIS2_PLACEMENT_3D('',#577,#475,#476);
#381=AXIS2_PLACEMENT_3D('',#578,#477,#478);
#382=AXIS2_PLACEMENT_3D('',#580,#480,#481);
#383=DIRECTION('axis',(0.,0.,1.));
#384=DIRECTION('refdir',(1.,0.,0.));
#385=DIRECTION('center_axis',(0.707106781186547,0.707106781186548,0.));
#386=DIRECTION('ref_axis',(0.,0.,-1.));
#387=DIRECTION('',(0.707106781186548,-0.707106781186547,0.));
#388=DIRECTION('',(0.,0.,-1.));
#389=DIRECTION('',(-0.707106781186548,0.707106781186547,0.));
#390=DIRECTION('',(0.,0.,1.));
#391=DIRECTION('center_axis',(-3.10862446895044E-16,1.,0.));
#392=DIRECTION('ref_axis',(-1.,-3.5527136788005E-16,0.));
#393=DIRECTION('',(-1.,-3.10862446895044E-16,0.));
#394=DIRECTION('',(0.,0.,1.));
#395=DIRECTION('center_axis',(3.10862446895044E-16,-1.,0.));
#396=DIRECTION('ref_axis',(6.3441315692866E-16,2.25388830063146E-31,1.));
#397=DIRECTION('',(-1.,-3.10862446895044E-16,-5.55111512312578E-16));
#398=DIRECTION('center_axis',(3.10862446895044E-16,-1.,0.));
#399=DIRECTION('ref_axis',(0.,0.,-1.));
#400=DIRECTION('',(1.,3.10862446895044E-16,0.));
#401=DIRECTION('center_axis',(3.10862446895044E-16,-1.,0.));
#402=DIRECTION('ref_axis',(6.3441315692866E-16,2.25388830063146E-31,1.));
#403=DIRECTION('',(0.,0.,1.));
#404=DIRECTION('',(1.,3.10862446895044E-16,0.));
#405=DIRECTION('center_axis',(0.,0.,-1.));
#406=DIRECTION('ref_axis',(0.707106781186547,0.707106781186547,0.));
#407=DIRECTION('center_axis',(0.,0.,1.));
#408=DIRECTION('ref_axis',(0.707106781186547,0.707106781186547,0.));
#409=DIRECTION('center_axis',(0.,0.,-1.));
#410=DIRECTION('ref_axis',(0.707106781186547,0.707106781186547,0.));
#411=DIRECTION('',(0.,0.,-1.));
#412=DIRECTION('center_axis',(0.,0.,-1.));
#413=DIRECTION('ref_axis',(-1.,0.,0.));
#414=DIRECTION('',(-1.,-4.28626379701574E-16,0.));
#415=DIRECTION('',(0.,1.,0.));
#416=DIRECTION('center_axis',(0.,0.,1.));
#417=DIRECTION('ref_axis',(0.707106781186547,0.707106781186548,0.));
#418=DIRECTION('',(1.33226762955019E-16,-1.,0.));
#419=DIRECTION('center_axis',(0.,0.,-1.));
#420=DIRECTION('ref_axis',(0.707106781186547,0.707106781186548,0.));
#421=DIRECTION('',(0.,0.,-1.));
#422=DIRECTION('center_axis',(0.,0.,-1.));
#423=DIRECTION('ref_axis',(0.707106781186547,0.707106781186548,0.));
#424=DIRECTION('',(0.,0.,-1.));
#425=DIRECTION('',(0.,0.,-1.));
#426=DIRECTION('center_axis',(0.,0.,1.));
#427=DIRECTION('ref_axis',(1.,0.,0.));
#428=DIRECTION('',(-1.33226762955019E-16,1.,0.));
#429=DIRECTION('',(0.,-1.,0.));
#430=DIRECTION('',(1.,4.28626379701574E-16,0.));
#431=DIRECTION('center_axis',(-1.,-1.77635683940025E-16,0.));
#432=DIRECTION('ref_axis',(0.,0.,-1.));
#433=DIRECTION('center_axis',(1.,0.,0.));
#434=DIRECTION('ref_axis',(0.,0.,-1.));
#435=DIRECTION('',(-1.,-1.77635683940025E-16,0.));
#436=DIRECTION('center_axis',(-1.,-1.33226762955019E-16,0.));
#437=DIRECTION('ref_axis',(0.,0.,-1.));
#438=DIRECTION('center_axis',(-1.,-1.33226762955019E-16,0.));
#439=DIRECTION('ref_axis',(0.,0.,-1.));
#440=DIRECTION('',(-1.,-1.77635683940025E-16,0.));
#441=DIRECTION('center_axis',(-9.86076131526264E-32,5.55111512312578E-16,
1.));
#442=DIRECTION('ref_axis',(-1.77635683940025E-16,1.,-5.32907051820075E-16));
#443=DIRECTION('',(0.,-1.,5.55111512312578E-16));
#444=DIRECTION('',(-1.33226762955019E-16,1.,-5.55111512312578E-16));
#445=DIRECTION('',(-1.,-1.77635683940025E-16,0.));
#446=DIRECTION('center_axis',(-1.,-1.77635683940025E-16,0.));
#447=DIRECTION('ref_axis',(-1.12694415031573E-31,6.34413156928661E-16,1.));
#448=DIRECTION('center_axis',(1.,0.,0.));
#449=DIRECTION('ref_axis',(-1.12694415031573E-31,6.34413156928661E-16,1.));
#450=DIRECTION('center_axis',(-1.,-1.33226762955019E-16,0.));
#451=DIRECTION('ref_axis',(-1.12694415031573E-31,6.34413156928661E-16,1.));
#452=DIRECTION('',(-1.,-1.77635683940025E-16,0.));
#453=DIRECTION('center_axis',(0.,0.,-1.));
#454=DIRECTION('ref_axis',(1.77635683940025E-16,-1.,0.));
#455=DIRECTION('',(0.,1.,0.));
#456=DIRECTION('',(1.33226762955019E-16,-1.,0.));
#457=DIRECTION('center_axis',(3.5527136788005E-16,-1.,0.));
#458=DIRECTION('ref_axis',(0.,0.,-1.));
#459=DIRECTION('center_axis',(-4.28626379701574E-16,1.,0.));
#460=DIRECTION('ref_axis',(0.,0.,-1.));
#461=DIRECTION('',(3.5527136788005E-16,-1.,0.));
#462=DIRECTION('',(3.5527136788005E-16,-1.,0.));
#463=DIRECTION('center_axis',(-5.55111512312578E-16,-1.97215226305253E-31,
1.));
#464=DIRECTION('ref_axis',(-1.,-3.5527136788005E-16,-5.77315972805081E-16));
#465=DIRECTION('',(1.,4.28626379701574E-16,5.55111512312578E-16));
#466=DIRECTION('',(3.5527136788005E-16,-1.,0.));
#467=DIRECTION('center_axis',(3.5527136788005E-16,-1.,0.));
#468=DIRECTION('ref_axis',(6.3441315692866E-16,2.25388830063146E-31,1.));
#469=DIRECTION('center_axis',(-4.28626379701574E-16,1.,0.));
#470=DIRECTION('ref_axis',(6.3441315692866E-16,2.25388830063146E-31,1.));
#471=DIRECTION('',(3.5527136788005E-16,-1.,0.));
#472=DIRECTION('center_axis',(0.,0.,-1.));
#473=DIRECTION('ref_axis',(1.,3.5527136788005E-16,0.));
#474=DIRECTION('',(-1.,-4.28626379701574E-16,0.));
#475=DIRECTION('center_axis',(1.,1.33226762955019E-16,0.));
#476=DIRECTION('ref_axis',(-1.77635683940025E-16,1.,0.));
#477=DIRECTION('center_axis',(4.28626379701574E-16,-1.,0.));
#478=DIRECTION('ref_axis',(1.,4.28626379701574E-16,0.));
#479=DIRECTION('',(0.,0.,1.));
#480=DIRECTION('center_axis',(-1.,0.,0.));
#481=DIRECTION('ref_axis',(0.,-1.,0.));
#482=CARTESIAN_POINT('',(0.,0.,0.));
#483=CARTESIAN_POINT('Origin',(6.5,6.5,0.));
#484=CARTESIAN_POINT('',(5.,8.00000000000001,12.5));
#485=CARTESIAN_POINT('',(8.,5.,12.5));
#486=CARTESIAN_POINT('',(6.5,6.5,12.5));
#487=CARTESIAN_POINT('',(8.,5.,-12.5));
#488=CARTESIAN_POINT('',(8.,5.,0.));
#489=CARTESIAN_POINT('',(5.,8.00000000000001,-12.5));
#490=CARTESIAN_POINT('',(6.5,6.5,-12.5));
#491=CARTESIAN_POINT('',(5.,8.00000000000001,0.));
#492=CARTESIAN_POINT('Origin',(30.,5.00000000000001,0.));
#493=CARTESIAN_POINT('',(25.,5.00000000000001,12.5));
#494=CARTESIAN_POINT('',(5.,5.,12.5));
#495=CARTESIAN_POINT('',(25.,5.00000000000001,0.));
#496=CARTESIAN_POINT('',(25.,5.00000000000001,0.));
#497=CARTESIAN_POINT('',(21.5,5.00000000000001,3.5));
#498=CARTESIAN_POINT('Origin',(21.5,5.00000000000001,0.));
#499=CARTESIAN_POINT('',(17.5,5.00000000000001,3.5));
#500=CARTESIAN_POINT('',(25.75,5.00000000000001,3.50000000000001));
#501=CARTESIAN_POINT('',(17.5,5.00000000000001,-3.5));
#502=CARTESIAN_POINT('Origin',(17.5,5.00000000000001,0.));
#503=CARTESIAN_POINT('',(21.5,5.00000000000001,-3.5));
#504=CARTESIAN_POINT('',(23.75,5.00000000000001,-3.5));
#505=CARTESIAN_POINT('Origin',(21.5,5.00000000000001,0.));
#506=CARTESIAN_POINT('',(25.,5.00000000000001,-12.5));
#507=CARTESIAN_POINT('',(25.,5.00000000000001,0.));
#508=CARTESIAN_POINT('',(5.,5.,-12.5));
#509=CARTESIAN_POINT('Origin',(25.,9.54791801177635E-15,0.));
#510=CARTESIAN_POINT('',(30.,1.28587913910472E-14,-12.5));
#511=CARTESIAN_POINT('Origin',(25.,9.54791801177635E-15,-12.5));
#512=CARTESIAN_POINT('',(30.,1.28587913910472E-14,12.5));
#513=CARTESIAN_POINT('Origin',(25.,9.54791801177635E-15,12.5));
#514=CARTESIAN_POINT('',(30.,1.28587913910472E-14,0.));
#515=CARTESIAN_POINT('Origin',(9.79166666666667,9.79166666666667,-12.5));
#516=CARTESIAN_POINT('',(0.,0.,-12.5));
#517=CARTESIAN_POINT('',(30.,1.28587913910472E-14,-12.5));
#518=CARTESIAN_POINT('',(0.,30.,-12.5));
#519=CARTESIAN_POINT('',(0.,0.,-12.5));
#520=CARTESIAN_POINT('',(5.,25.,-12.5));
#521=CARTESIAN_POINT('Origin',(-5.55111512312578E-16,25.,-12.5));
#522=CARTESIAN_POINT('',(5.,30.,-12.5));
#523=CARTESIAN_POINT('Origin',(-5.55111512312578E-16,25.,0.));
#524=CARTESIAN_POINT('',(0.,30.,12.5));
#525=CARTESIAN_POINT('',(0.,30.,0.));
#526=CARTESIAN_POINT('',(5.,25.,12.5));
#527=CARTESIAN_POINT('Origin',(-5.55111512312578E-16,25.,12.5));
#528=CARTESIAN_POINT('',(5.,25.,0.));
#529=CARTESIAN_POINT('',(5.,25.,0.));
#530=CARTESIAN_POINT('',(5.,25.,0.));
#531=CARTESIAN_POINT('Origin',(9.79166666666667,9.79166666666667,12.5));
#532=CARTESIAN_POINT('',(5.,30.,12.5));
#533=CARTESIAN_POINT('',(0.,0.,12.5));
#534=CARTESIAN_POINT('',(0.,0.,12.5));
#535=CARTESIAN_POINT('',(30.,1.28587913910472E-14,12.5));
#536=CARTESIAN_POINT('Origin',(5.,21.5,0.));
#537=CARTESIAN_POINT('',(0.,21.5,-3.5));
#538=CARTESIAN_POINT('',(0.,21.5,3.5));
#539=CARTESIAN_POINT('Origin',(1.66533453693773E-15,21.5,0.));
#540=CARTESIAN_POINT('',(5.,21.5,-3.5));
#541=CARTESIAN_POINT('',(5.,21.5,-3.5));
#542=CARTESIAN_POINT('Origin',(5.,21.5,0.));
#543=CARTESIAN_POINT('',(5.,21.5,3.5));
#544=CARTESIAN_POINT('Origin',(5.,21.5,0.));
#545=CARTESIAN_POINT('',(5.,21.5,3.5));
#546=CARTESIAN_POINT('Origin',(5.,17.5,3.5));
#547=CARTESIAN_POINT('',(0.,17.5,3.5));
#548=CARTESIAN_POINT('',(0.,23.75,3.5));
#549=CARTESIAN_POINT('',(5.,17.5,3.5));
#550=CARTESIAN_POINT('',(5.,11.25,3.5));
#551=CARTESIAN_POINT('',(5.,17.5,3.5));
#552=CARTESIAN_POINT('Origin',(5.,17.5,0.));
#553=CARTESIAN_POINT('',(0.,17.5,-3.5));
#554=CARTESIAN_POINT('Origin',(2.22044604925031E-15,17.5,0.));
#555=CARTESIAN_POINT('',(5.,17.5,-3.5));
#556=CARTESIAN_POINT('Origin',(5.,17.5,0.));
#557=CARTESIAN_POINT('',(5.,17.5,-3.5));
#558=CARTESIAN_POINT('Origin',(5.,21.5,-3.5));
#559=CARTESIAN_POINT('',(0.,25.75,-3.5));
#560=CARTESIAN_POINT('',(5.,13.25,-3.5));
#561=CARTESIAN_POINT('Origin',(17.5,5.00000000000001,0.));
#562=CARTESIAN_POINT('',(17.5,7.7715611723761E-15,-3.5));
#563=CARTESIAN_POINT('',(17.5,7.7715611723761E-15,3.5));
#564=CARTESIAN_POINT('Origin',(17.5,6.66133814775094E-15,0.));
#565=CARTESIAN_POINT('',(17.5,5.00000000000001,-3.5));
#566=CARTESIAN_POINT('',(17.5,5.00000000000001,3.5));
#567=CARTESIAN_POINT('Origin',(21.5,5.00000000000001,3.5));
#568=CARTESIAN_POINT('',(21.5,9.43689570931383E-15,3.5));
#569=CARTESIAN_POINT('',(10.75,4.71844785465692E-15,3.5));
#570=CARTESIAN_POINT('',(21.5,5.00000000000001,3.5));
#571=CARTESIAN_POINT('Origin',(21.5,5.00000000000001,0.));
#572=CARTESIAN_POINT('',(21.5,9.43689570931383E-15,-3.5));
#573=CARTESIAN_POINT('Origin',(21.5,7.7715611723761E-15,0.));
#574=CARTESIAN_POINT('',(21.5,5.00000000000001,-3.5));
#575=CARTESIAN_POINT('Origin',(17.5,5.00000000000001,-3.5));
#576=CARTESIAN_POINT('',(8.75000000000001,3.88578058618805E-15,-3.5));
#577=CARTESIAN_POINT('Origin',(5.,5.,0.));
#578=CARTESIAN_POINT('Origin',(0.,0.,0.));
#579=CARTESIAN_POINT('',(0.,0.,0.));
#580=CARTESIAN_POINT('Origin',(0.,30.,0.));
#581=UNCERTAINTY_MEASURE_WITH_UNIT(LENGTH_MEASURE(0.01),#585,
'DISTANCE_ACCURACY_VALUE',
'Maximum model space distance between geometric entities at asserted c
onnectivities');
#582=UNCERTAINTY_MEASURE_WITH_UNIT(LENGTH_MEASURE(1.E-6),#585,
'DISTANCE_ACCURACY_VALUE',
'Maximum model space distance between geometric entities at asserted c
onnectivities');
#583=(
GEOMETRIC_REPRESENTATION_CONTEXT(3)
GLOBAL_UNCERTAINTY_ASSIGNED_CONTEXT((#581))
GLOBAL_UNIT_ASSIGNED_CONTEXT((#585,#588,#586))
REPRESENTATION_CONTEXT('','3D')
);
#584=(
GEOMETRIC_REPRESENTATION_CONTEXT(3)
GLOBAL_UNCERTAINTY_ASSIGNED_CONTEXT((#582))
GLOBAL_UNIT_ASSIGNED_CONTEXT((#585,#588,#586))
REPRESENTATION_CONTEXT('','3D')
);
#585=(
LENGTH_UNIT()
NAMED_UNIT(*)
SI_UNIT(.MILLI.,.METRE.)
);
#586=(
NAMED_UNIT(*)
SI_UNIT($,.STERADIAN.)
SOLID_ANGLE_UNIT()
);
#587=DIMENSIONAL_EXPONENTS(0.,0.,0.,0.,0.,0.,0.);
#588=(
CONVERSION_BASED_UNIT('degree',#590)
NAMED_UNIT(#587)
PLANE_ANGLE_UNIT()
);
#589=(
NAMED_UNIT(*)
PLANE_ANGLE_UNIT()
SI_UNIT($,.RADIAN.)
);
#590=PLANE_ANGLE_MEASURE_WITH_UNIT(PLANE_ANGLE_MEASURE(0.01745329252),#589);
#591=SHAPE_DEFINITION_REPRESENTATION(#592,#593);
#592=PRODUCT_DEFINITION_SHAPE('',$,#595);
#593=SHAPE_REPRESENTATION('',(#351),#583);
#594=PRODUCT_DEFINITION_CONTEXT('part definition',#599,'design');
#595=PRODUCT_DEFINITION('DAL3025-6','DAL3025-6',#596,#594);
#596=PRODUCT_DEFINITION_FORMATION('',$,#601);
#597=PRODUCT_RELATED_PRODUCT_CATEGORY('DAL3025-6','DAL3025-6',(#601));
#598=APPLICATION_PROTOCOL_DEFINITION('international standard',
'automotive_design',2009,#599);
#599=APPLICATION_CONTEXT(
'Core Data for Automotive Mechanical Design Process');
#600=PRODUCT_CONTEXT('part definition',#599,'mechanical');
#601=PRODUCT('DAL3025-6','DAL3025-6',$,(#600));
#602=PRESENTATION_STYLE_ASSIGNMENT((#603));
#603=SURFACE_STYLE_USAGE(.BOTH.,#604);
#604=SURFACE_SIDE_STYLE($,(#605));
#605=SURFACE_STYLE_FILL_AREA(#606);
#606=FILL_AREA_STYLE($,(#607));
#607=FILL_AREA_STYLE_COLOUR($,#608);
#608=COLOUR_RGB('',0.749019607843137,0.749019607843137,0.749019607843137);
ENDSEC;
END-ISO-10303-21;
