ISO-10303-21;
HEADER;
/* Generated by software containing ST-Developer
 * from STEP Tools, Inc. (www.steptools.com) 
 */

FILE_DESCRIPTION(
/* description */ (''),
/* implementation_level */ '2;1');

FILE_NAME(
/* name */ 'D:\\\X2\96F64EF6\X0\\\M6\X2\7CFB5217\X0\\\\X2\914D4EF6\X0\\\
DAF6060-6.stp',
/* time_stamp */ '2025-03-27T10:12:52+08:00',
/* author */ ('1091212-1'),
/* organization */ (''),
/* preprocessor_version */ 'ST-DEVELOPER v15.6',
/* originating_system */ 'Autodesk Inventor 2015',
/* authorisation */ '');

FILE_SCHEMA (('AUTOMOTIVE_DESIGN { 1 0 10303 214 3 1 1 }'));
ENDSEC;

DATA;
#10=MECHANICAL_DESIGN_GEOMETRIC_PRESENTATION_REPRESENTATION('',(#13),#707);
#11=SHAPE_REPRESENTATION_RELATIONSHIP('SRR','None',#716,#12);
#12=ADVANCED_BREP_SHAPE_REPRESENTATION($,(#14),#706);
#13=STYLED_ITEM('',(#725),#14);
#14=MANIFOLD_SOLID_BREP('\X2\5BE69AD4\X0\1',#435);
#15=LINE('',#613,#51);
#16=LINE('',#615,#52);
#17=LINE('',#617,#53);
#18=LINE('',#618,#54);
#19=LINE('',#621,#55);
#20=LINE('',#623,#56);
#21=LINE('',#624,#57);
#22=LINE('',#627,#58);
#23=LINE('',#629,#59);
#24=LINE('',#631,#60);
#25=LINE('',#633,#61);
#26=LINE('',#635,#62);
#27=LINE('',#637,#63);
#28=LINE('',#639,#64);
#29=LINE('',#641,#65);
#30=LINE('',#643,#66);
#31=LINE('',#644,#67);
#32=LINE('',#667,#68);
#33=LINE('',#669,#69);
#34=LINE('',#670,#70);
#35=LINE('',#673,#71);
#36=LINE('',#674,#72);
#37=LINE('',#678,#73);
#38=LINE('',#679,#74);
#39=LINE('',#680,#75);
#40=LINE('',#683,#76);
#41=LINE('',#684,#77);
#42=LINE('',#688,#78);
#43=LINE('',#689,#79);
#44=LINE('',#690,#80);
#45=LINE('',#693,#81);
#46=LINE('',#694,#82);
#47=LINE('',#696,#83);
#48=LINE('',#698,#84);
#49=LINE('',#700,#85);
#50=LINE('',#701,#86);
#51=VECTOR('',#503,11.3137084989848);
#52=VECTOR('',#504,60.);
#53=VECTOR('',#505,11.3137084989848);
#54=VECTOR('',#506,60.);
#55=VECTOR('',#509,2.);
#56=VECTOR('',#510,60.);
#57=VECTOR('',#511,2.);
#58=VECTOR('',#514,16.);
#59=VECTOR('',#515,7.81024967590665);
#60=VECTOR('',#516,5.);
#61=VECTOR('',#517,60.);
#62=VECTOR('',#518,5.);
#63=VECTOR('',#519,7.81024967590666);
#64=VECTOR('',#520,16.);
#65=VECTOR('',#521,11.3137084989848);
#66=VECTOR('',#522,2.);
#67=VECTOR('',#523,120.);
#68=VECTOR('',#550,60.);
#69=VECTOR('',#551,11.3137084989848);
#70=VECTOR('',#552,60.);
#71=VECTOR('',#555,2.);
#72=VECTOR('',#556,60.);
#73=VECTOR('',#559,7.81024967590666);
#74=VECTOR('',#560,60.);
#75=VECTOR('',#561,60.);
#76=VECTOR('',#564,5.);
#77=VECTOR('',#565,60.);
#78=VECTOR('',#568,7.81024967590666);
#79=VECTOR('',#569,60.);
#80=VECTOR('',#570,60.);
#81=VECTOR('',#573,5.);
#82=VECTOR('',#574,60.);
#83=VECTOR('',#577,16.);
#84=VECTOR('',#580,16.);
#85=VECTOR('',#583,120.);
#86=VECTOR('',#584,60.);
#87=PLANE('',#449);
#88=PLANE('',#450);
#89=PLANE('',#451);
#90=PLANE('',#464);
#91=PLANE('',#465);
#92=PLANE('',#466);
#93=PLANE('',#467);
#94=PLANE('',#468);
#95=PLANE('',#469);
#96=PLANE('',#470);
#97=PLANE('',#471);
#98=PLANE('',#472);
#99=PLANE('',#473);
#100=PLANE('',#474);
#101=FACE_BOUND('',#148,.T.);
#102=FACE_BOUND('',#150,.T.);
#103=FACE_BOUND('',#152,.T.);
#104=FACE_BOUND('',#154,.T.);
#105=FACE_BOUND('',#159,.T.);
#106=FACE_BOUND('',#161,.T.);
#107=FACE_BOUND('',#163,.T.);
#108=FACE_BOUND('',#165,.T.);
#109=FACE_BOUND('',#173,.T.);
#110=FACE_BOUND('',#174,.T.);
#111=FACE_BOUND('',#176,.T.);
#112=FACE_BOUND('',#177,.T.);
#113=FACE_BOUND('',#180,.T.);
#114=FACE_BOUND('',#181,.T.);
#115=FACE_BOUND('',#182,.T.);
#116=FACE_BOUND('',#183,.T.);
#117=FACE_BOUND('',#184,.T.);
#118=FACE_BOUND('',#185,.T.);
#119=FACE_BOUND('',#186,.T.);
#120=FACE_BOUND('',#187,.T.);
#121=FACE_BOUND('',#189,.T.);
#122=FACE_BOUND('',#190,.T.);
#123=FACE_BOUND('',#191,.T.);
#124=FACE_BOUND('',#192,.T.);
#125=FACE_OUTER_BOUND('',#147,.T.);
#126=FACE_OUTER_BOUND('',#149,.T.);
#127=FACE_OUTER_BOUND('',#151,.T.);
#128=FACE_OUTER_BOUND('',#153,.T.);
#129=FACE_OUTER_BOUND('',#155,.T.);
#130=FACE_OUTER_BOUND('',#156,.T.);
#131=FACE_OUTER_BOUND('',#157,.T.);
#132=FACE_OUTER_BOUND('',#158,.T.);
#133=FACE_OUTER_BOUND('',#160,.T.);
#134=FACE_OUTER_BOUND('',#162,.T.);
#135=FACE_OUTER_BOUND('',#164,.T.);
#136=FACE_OUTER_BOUND('',#166,.T.);
#137=FACE_OUTER_BOUND('',#167,.T.);
#138=FACE_OUTER_BOUND('',#168,.T.);
#139=FACE_OUTER_BOUND('',#169,.T.);
#140=FACE_OUTER_BOUND('',#170,.T.);
#141=FACE_OUTER_BOUND('',#171,.T.);
#142=FACE_OUTER_BOUND('',#172,.T.);
#143=FACE_OUTER_BOUND('',#175,.T.);
#144=FACE_OUTER_BOUND('',#178,.T.);
#145=FACE_OUTER_BOUND('',#179,.T.);
#146=FACE_OUTER_BOUND('',#188,.T.);
#147=EDGE_LOOP('',(#301));
#148=EDGE_LOOP('',(#302));
#149=EDGE_LOOP('',(#303));
#150=EDGE_LOOP('',(#304));
#151=EDGE_LOOP('',(#305));
#152=EDGE_LOOP('',(#306));
#153=EDGE_LOOP('',(#307));
#154=EDGE_LOOP('',(#308));
#155=EDGE_LOOP('',(#309,#310,#311,#312));
#156=EDGE_LOOP('',(#313,#314,#315,#316));
#157=EDGE_LOOP('',(#317,#318,#319,#320,#321,#322,#323,#324,#325,#326,#327,
#328));
#158=EDGE_LOOP('',(#329));
#159=EDGE_LOOP('',(#330));
#160=EDGE_LOOP('',(#331));
#161=EDGE_LOOP('',(#332));
#162=EDGE_LOOP('',(#333));
#163=EDGE_LOOP('',(#334));
#164=EDGE_LOOP('',(#335));
#165=EDGE_LOOP('',(#336));
#166=EDGE_LOOP('',(#337,#338,#339,#340));
#167=EDGE_LOOP('',(#341,#342,#343,#344));
#168=EDGE_LOOP('',(#345,#346,#347,#348));
#169=EDGE_LOOP('',(#349,#350,#351,#352));
#170=EDGE_LOOP('',(#353,#354,#355,#356));
#171=EDGE_LOOP('',(#357,#358,#359,#360));
#172=EDGE_LOOP('',(#361,#362,#363,#364));
#173=EDGE_LOOP('',(#365));
#174=EDGE_LOOP('',(#366));
#175=EDGE_LOOP('',(#367,#368,#369,#370));
#176=EDGE_LOOP('',(#371));
#177=EDGE_LOOP('',(#372));
#178=EDGE_LOOP('',(#373,#374,#375,#376,#377,#378,#379,#380,#381,#382,#383,
#384));
#179=EDGE_LOOP('',(#385,#386,#387,#388));
#180=EDGE_LOOP('',(#389));
#181=EDGE_LOOP('',(#390));
#182=EDGE_LOOP('',(#391));
#183=EDGE_LOOP('',(#392));
#184=EDGE_LOOP('',(#393));
#185=EDGE_LOOP('',(#394));
#186=EDGE_LOOP('',(#395));
#187=EDGE_LOOP('',(#396));
#188=EDGE_LOOP('',(#397,#398,#399,#400));
#189=EDGE_LOOP('',(#401));
#190=EDGE_LOOP('',(#402));
#191=EDGE_LOOP('',(#403));
#192=EDGE_LOOP('',(#404));
#193=CIRCLE('',#438,2.4585);
#194=CIRCLE('',#439,2.4585);
#195=CIRCLE('',#441,2.4585);
#196=CIRCLE('',#442,2.4585);
#197=CIRCLE('',#444,3.5);
#198=CIRCLE('',#445,3.5);
#199=CIRCLE('',#447,3.5);
#200=CIRCLE('',#448,3.5);
#201=CIRCLE('',#453,3.5);
#202=CIRCLE('',#454,3.5);
#203=CIRCLE('',#456,3.5);
#204=CIRCLE('',#457,3.5);
#205=CIRCLE('',#459,2.4585);
#206=CIRCLE('',#460,2.4585);
#207=CIRCLE('',#462,2.4585);
#208=CIRCLE('',#463,2.4585);
#209=VERTEX_POINT('',#591);
#210=VERTEX_POINT('',#593);
#211=VERTEX_POINT('',#596);
#212=VERTEX_POINT('',#598);
#213=VERTEX_POINT('',#601);
#214=VERTEX_POINT('',#603);
#215=VERTEX_POINT('',#606);
#216=VERTEX_POINT('',#608);
#217=VERTEX_POINT('',#611);
#218=VERTEX_POINT('',#612);
#219=VERTEX_POINT('',#614);
#220=VERTEX_POINT('',#616);
#221=VERTEX_POINT('',#620);
#222=VERTEX_POINT('',#622);
#223=VERTEX_POINT('',#626);
#224=VERTEX_POINT('',#628);
#225=VERTEX_POINT('',#630);
#226=VERTEX_POINT('',#632);
#227=VERTEX_POINT('',#634);
#228=VERTEX_POINT('',#636);
#229=VERTEX_POINT('',#638);
#230=VERTEX_POINT('',#640);
#231=VERTEX_POINT('',#642);
#232=VERTEX_POINT('',#646);
#233=VERTEX_POINT('',#648);
#234=VERTEX_POINT('',#651);
#235=VERTEX_POINT('',#653);
#236=VERTEX_POINT('',#656);
#237=VERTEX_POINT('',#658);
#238=VERTEX_POINT('',#661);
#239=VERTEX_POINT('',#663);
#240=VERTEX_POINT('',#666);
#241=VERTEX_POINT('',#668);
#242=VERTEX_POINT('',#672);
#243=VERTEX_POINT('',#676);
#244=VERTEX_POINT('',#677);
#245=VERTEX_POINT('',#682);
#246=VERTEX_POINT('',#686);
#247=VERTEX_POINT('',#687);
#248=VERTEX_POINT('',#692);
#249=EDGE_CURVE('',#209,#209,#193,.T.);
#250=EDGE_CURVE('',#210,#210,#194,.T.);
#251=EDGE_CURVE('',#211,#211,#195,.T.);
#252=EDGE_CURVE('',#212,#212,#196,.T.);
#253=EDGE_CURVE('',#213,#213,#197,.T.);
#254=EDGE_CURVE('',#214,#214,#198,.T.);
#255=EDGE_CURVE('',#215,#215,#199,.T.);
#256=EDGE_CURVE('',#216,#216,#200,.T.);
#257=EDGE_CURVE('',#217,#218,#15,.T.);
#258=EDGE_CURVE('',#218,#219,#16,.T.);
#259=EDGE_CURVE('',#219,#220,#17,.T.);
#260=EDGE_CURVE('',#220,#217,#18,.T.);
#261=EDGE_CURVE('',#221,#220,#19,.T.);
#262=EDGE_CURVE('',#222,#221,#20,.T.);
#263=EDGE_CURVE('',#222,#217,#21,.T.);
#264=EDGE_CURVE('',#223,#219,#22,.T.);
#265=EDGE_CURVE('',#223,#224,#23,.T.);
#266=EDGE_CURVE('',#224,#225,#24,.T.);
#267=EDGE_CURVE('',#226,#225,#25,.T.);
#268=EDGE_CURVE('',#226,#227,#26,.T.);
#269=EDGE_CURVE('',#227,#228,#27,.T.);
#270=EDGE_CURVE('',#229,#228,#28,.T.);
#271=EDGE_CURVE('',#230,#229,#29,.T.);
#272=EDGE_CURVE('',#231,#230,#30,.T.);
#273=EDGE_CURVE('',#221,#231,#31,.T.);
#274=EDGE_CURVE('',#232,#232,#201,.T.);
#275=EDGE_CURVE('',#233,#233,#202,.T.);
#276=EDGE_CURVE('',#234,#234,#203,.T.);
#277=EDGE_CURVE('',#235,#235,#204,.T.);
#278=EDGE_CURVE('',#236,#236,#205,.T.);
#279=EDGE_CURVE('',#237,#237,#206,.T.);
#280=EDGE_CURVE('',#238,#238,#207,.T.);
#281=EDGE_CURVE('',#239,#239,#208,.T.);
#282=EDGE_CURVE('',#229,#240,#32,.T.);
#283=EDGE_CURVE('',#240,#241,#33,.T.);
#284=EDGE_CURVE('',#241,#230,#34,.T.);
#285=EDGE_CURVE('',#242,#241,#35,.T.);
#286=EDGE_CURVE('',#231,#242,#36,.T.);
#287=EDGE_CURVE('',#243,#244,#37,.T.);
#288=EDGE_CURVE('',#224,#244,#38,.T.);
#289=EDGE_CURVE('',#243,#223,#39,.T.);
#290=EDGE_CURVE('',#244,#245,#40,.T.);
#291=EDGE_CURVE('',#225,#245,#41,.T.);
#292=EDGE_CURVE('',#246,#247,#42,.T.);
#293=EDGE_CURVE('',#228,#247,#43,.T.);
#294=EDGE_CURVE('',#227,#246,#44,.T.);
#295=EDGE_CURVE('',#248,#246,#45,.T.);
#296=EDGE_CURVE('',#248,#226,#46,.T.);
#297=EDGE_CURVE('',#218,#243,#47,.T.);
#298=EDGE_CURVE('',#247,#240,#48,.T.);
#299=EDGE_CURVE('',#242,#222,#49,.T.);
#300=EDGE_CURVE('',#245,#248,#50,.T.);
#301=ORIENTED_EDGE('',*,*,#249,.F.);
#302=ORIENTED_EDGE('',*,*,#250,.F.);
#303=ORIENTED_EDGE('',*,*,#251,.F.);
#304=ORIENTED_EDGE('',*,*,#252,.F.);
#305=ORIENTED_EDGE('',*,*,#253,.F.);
#306=ORIENTED_EDGE('',*,*,#254,.F.);
#307=ORIENTED_EDGE('',*,*,#255,.F.);
#308=ORIENTED_EDGE('',*,*,#256,.F.);
#309=ORIENTED_EDGE('',*,*,#257,.T.);
#310=ORIENTED_EDGE('',*,*,#258,.T.);
#311=ORIENTED_EDGE('',*,*,#259,.T.);
#312=ORIENTED_EDGE('',*,*,#260,.T.);
#313=ORIENTED_EDGE('',*,*,#260,.F.);
#314=ORIENTED_EDGE('',*,*,#261,.F.);
#315=ORIENTED_EDGE('',*,*,#262,.F.);
#316=ORIENTED_EDGE('',*,*,#263,.T.);
#317=ORIENTED_EDGE('',*,*,#259,.F.);
#318=ORIENTED_EDGE('',*,*,#264,.F.);
#319=ORIENTED_EDGE('',*,*,#265,.T.);
#320=ORIENTED_EDGE('',*,*,#266,.T.);
#321=ORIENTED_EDGE('',*,*,#267,.F.);
#322=ORIENTED_EDGE('',*,*,#268,.T.);
#323=ORIENTED_EDGE('',*,*,#269,.T.);
#324=ORIENTED_EDGE('',*,*,#270,.F.);
#325=ORIENTED_EDGE('',*,*,#271,.F.);
#326=ORIENTED_EDGE('',*,*,#272,.F.);
#327=ORIENTED_EDGE('',*,*,#273,.F.);
#328=ORIENTED_EDGE('',*,*,#261,.T.);
#329=ORIENTED_EDGE('',*,*,#274,.F.);
#330=ORIENTED_EDGE('',*,*,#275,.F.);
#331=ORIENTED_EDGE('',*,*,#276,.F.);
#332=ORIENTED_EDGE('',*,*,#277,.F.);
#333=ORIENTED_EDGE('',*,*,#278,.F.);
#334=ORIENTED_EDGE('',*,*,#279,.F.);
#335=ORIENTED_EDGE('',*,*,#280,.F.);
#336=ORIENTED_EDGE('',*,*,#281,.F.);
#337=ORIENTED_EDGE('',*,*,#271,.T.);
#338=ORIENTED_EDGE('',*,*,#282,.T.);
#339=ORIENTED_EDGE('',*,*,#283,.T.);
#340=ORIENTED_EDGE('',*,*,#284,.T.);
#341=ORIENTED_EDGE('',*,*,#284,.F.);
#342=ORIENTED_EDGE('',*,*,#285,.F.);
#343=ORIENTED_EDGE('',*,*,#286,.F.);
#344=ORIENTED_EDGE('',*,*,#272,.T.);
#345=ORIENTED_EDGE('',*,*,#287,.T.);
#346=ORIENTED_EDGE('',*,*,#288,.F.);
#347=ORIENTED_EDGE('',*,*,#265,.F.);
#348=ORIENTED_EDGE('',*,*,#289,.F.);
#349=ORIENTED_EDGE('',*,*,#290,.T.);
#350=ORIENTED_EDGE('',*,*,#291,.F.);
#351=ORIENTED_EDGE('',*,*,#266,.F.);
#352=ORIENTED_EDGE('',*,*,#288,.T.);
#353=ORIENTED_EDGE('',*,*,#292,.T.);
#354=ORIENTED_EDGE('',*,*,#293,.F.);
#355=ORIENTED_EDGE('',*,*,#269,.F.);
#356=ORIENTED_EDGE('',*,*,#294,.T.);
#357=ORIENTED_EDGE('',*,*,#295,.T.);
#358=ORIENTED_EDGE('',*,*,#294,.F.);
#359=ORIENTED_EDGE('',*,*,#268,.F.);
#360=ORIENTED_EDGE('',*,*,#296,.F.);
#361=ORIENTED_EDGE('',*,*,#258,.F.);
#362=ORIENTED_EDGE('',*,*,#297,.T.);
#363=ORIENTED_EDGE('',*,*,#289,.T.);
#364=ORIENTED_EDGE('',*,*,#264,.T.);
#365=ORIENTED_EDGE('',*,*,#254,.T.);
#366=ORIENTED_EDGE('',*,*,#277,.T.);
#367=ORIENTED_EDGE('',*,*,#282,.F.);
#368=ORIENTED_EDGE('',*,*,#270,.T.);
#369=ORIENTED_EDGE('',*,*,#293,.T.);
#370=ORIENTED_EDGE('',*,*,#298,.T.);
#371=ORIENTED_EDGE('',*,*,#256,.T.);
#372=ORIENTED_EDGE('',*,*,#275,.T.);
#373=ORIENTED_EDGE('',*,*,#257,.F.);
#374=ORIENTED_EDGE('',*,*,#263,.F.);
#375=ORIENTED_EDGE('',*,*,#299,.F.);
#376=ORIENTED_EDGE('',*,*,#285,.T.);
#377=ORIENTED_EDGE('',*,*,#283,.F.);
#378=ORIENTED_EDGE('',*,*,#298,.F.);
#379=ORIENTED_EDGE('',*,*,#292,.F.);
#380=ORIENTED_EDGE('',*,*,#295,.F.);
#381=ORIENTED_EDGE('',*,*,#300,.F.);
#382=ORIENTED_EDGE('',*,*,#290,.F.);
#383=ORIENTED_EDGE('',*,*,#287,.F.);
#384=ORIENTED_EDGE('',*,*,#297,.F.);
#385=ORIENTED_EDGE('',*,*,#273,.T.);
#386=ORIENTED_EDGE('',*,*,#286,.T.);
#387=ORIENTED_EDGE('',*,*,#299,.T.);
#388=ORIENTED_EDGE('',*,*,#262,.T.);
#389=ORIENTED_EDGE('',*,*,#249,.T.);
#390=ORIENTED_EDGE('',*,*,#251,.T.);
#391=ORIENTED_EDGE('',*,*,#253,.T.);
#392=ORIENTED_EDGE('',*,*,#255,.T.);
#393=ORIENTED_EDGE('',*,*,#274,.T.);
#394=ORIENTED_EDGE('',*,*,#276,.T.);
#395=ORIENTED_EDGE('',*,*,#278,.T.);
#396=ORIENTED_EDGE('',*,*,#280,.T.);
#397=ORIENTED_EDGE('',*,*,#291,.T.);
#398=ORIENTED_EDGE('',*,*,#300,.T.);
#399=ORIENTED_EDGE('',*,*,#296,.T.);
#400=ORIENTED_EDGE('',*,*,#267,.T.);
#401=ORIENTED_EDGE('',*,*,#250,.T.);
#402=ORIENTED_EDGE('',*,*,#252,.T.);
#403=ORIENTED_EDGE('',*,*,#279,.T.);
#404=ORIENTED_EDGE('',*,*,#281,.T.);
#405=CYLINDRICAL_SURFACE('',#437,2.4585);
#406=CYLINDRICAL_SURFACE('',#440,2.4585);
#407=CYLINDRICAL_SURFACE('',#443,3.5);
#408=CYLINDRICAL_SURFACE('',#446,3.5);
#409=CYLINDRICAL_SURFACE('',#452,3.5);
#410=CYLINDRICAL_SURFACE('',#455,3.5);
#411=CYLINDRICAL_SURFACE('',#458,2.4585);
#412=CYLINDRICAL_SURFACE('',#461,2.4585);
#413=ADVANCED_FACE('',(#125,#101),#405,.F.);
#414=ADVANCED_FACE('',(#126,#102),#406,.F.);
#415=ADVANCED_FACE('',(#127,#103),#407,.F.);
#416=ADVANCED_FACE('',(#128,#104),#408,.F.);
#417=ADVANCED_FACE('',(#129),#87,.T.);
#418=ADVANCED_FACE('',(#130),#88,.T.);
#419=ADVANCED_FACE('',(#131),#89,.T.);
#420=ADVANCED_FACE('',(#132,#105),#409,.F.);
#421=ADVANCED_FACE('',(#133,#106),#410,.F.);
#422=ADVANCED_FACE('',(#134,#107),#411,.F.);
#423=ADVANCED_FACE('',(#135,#108),#412,.F.);
#424=ADVANCED_FACE('',(#136),#90,.T.);
#425=ADVANCED_FACE('',(#137),#91,.T.);
#426=ADVANCED_FACE('',(#138),#92,.T.);
#427=ADVANCED_FACE('',(#139),#93,.T.);
#428=ADVANCED_FACE('',(#140),#94,.T.);
#429=ADVANCED_FACE('',(#141),#95,.T.);
#430=ADVANCED_FACE('',(#142,#109,#110),#96,.T.);
#431=ADVANCED_FACE('',(#143,#111,#112),#97,.T.);
#432=ADVANCED_FACE('',(#144),#98,.T.);
#433=ADVANCED_FACE('',(#145,#113,#114,#115,#116,#117,#118,#119,#120),#99,
 .T.);
#434=ADVANCED_FACE('',(#146,#121,#122,#123,#124),#100,.T.);
#435=CLOSED_SHELL('',(#413,#414,#415,#416,#417,#418,#419,#420,#421,#422,
#423,#424,#425,#426,#427,#428,#429,#430,#431,#432,#433,#434));
#436=AXIS2_PLACEMENT_3D('placement',#589,#475,#476);
#437=AXIS2_PLACEMENT_3D('',#590,#477,#478);
#438=AXIS2_PLACEMENT_3D('',#592,#479,#480);
#439=AXIS2_PLACEMENT_3D('',#594,#481,#482);
#440=AXIS2_PLACEMENT_3D('',#595,#483,#484);
#441=AXIS2_PLACEMENT_3D('',#597,#485,#486);
#442=AXIS2_PLACEMENT_3D('',#599,#487,#488);
#443=AXIS2_PLACEMENT_3D('',#600,#489,#490);
#444=AXIS2_PLACEMENT_3D('',#602,#491,#492);
#445=AXIS2_PLACEMENT_3D('',#604,#493,#494);
#446=AXIS2_PLACEMENT_3D('',#605,#495,#496);
#447=AXIS2_PLACEMENT_3D('',#607,#497,#498);
#448=AXIS2_PLACEMENT_3D('',#609,#499,#500);
#449=AXIS2_PLACEMENT_3D('',#610,#501,#502);
#450=AXIS2_PLACEMENT_3D('',#619,#507,#508);
#451=AXIS2_PLACEMENT_3D('',#625,#512,#513);
#452=AXIS2_PLACEMENT_3D('',#645,#524,#525);
#453=AXIS2_PLACEMENT_3D('',#647,#526,#527);
#454=AXIS2_PLACEMENT_3D('',#649,#528,#529);
#455=AXIS2_PLACEMENT_3D('',#650,#530,#531);
#456=AXIS2_PLACEMENT_3D('',#652,#532,#533);
#457=AXIS2_PLACEMENT_3D('',#654,#534,#535);
#458=AXIS2_PLACEMENT_3D('',#655,#536,#537);
#459=AXIS2_PLACEMENT_3D('',#657,#538,#539);
#460=AXIS2_PLACEMENT_3D('',#659,#540,#541);
#461=AXIS2_PLACEMENT_3D('',#660,#542,#543);
#462=AXIS2_PLACEMENT_3D('',#662,#544,#545);
#463=AXIS2_PLACEMENT_3D('',#664,#546,#547);
#464=AXIS2_PLACEMENT_3D('',#665,#548,#549);
#465=AXIS2_PLACEMENT_3D('',#671,#553,#554);
#466=AXIS2_PLACEMENT_3D('',#675,#557,#558);
#467=AXIS2_PLACEMENT_3D('',#681,#562,#563);
#468=AXIS2_PLACEMENT_3D('',#685,#566,#567);
#469=AXIS2_PLACEMENT_3D('',#691,#571,#572);
#470=AXIS2_PLACEMENT_3D('',#695,#575,#576);
#471=AXIS2_PLACEMENT_3D('',#697,#578,#579);
#472=AXIS2_PLACEMENT_3D('',#699,#581,#582);
#473=AXIS2_PLACEMENT_3D('',#702,#585,#586);
#474=AXIS2_PLACEMENT_3D('',#703,#587,#588);
#475=DIRECTION('axis',(0.,0.,1.));
#476=DIRECTION('refdir',(1.,0.,0.));
#477=DIRECTION('center_axis',(0.,1.,0.));
#478=DIRECTION('ref_axis',(1.,0.,0.));
#479=DIRECTION('center_axis',(0.,1.,0.));
#480=DIRECTION('ref_axis',(1.,0.,0.));
#481=DIRECTION('center_axis',(0.,-1.,0.));
#482=DIRECTION('ref_axis',(1.,0.,0.));
#483=DIRECTION('center_axis',(0.,1.,0.));
#484=DIRECTION('ref_axis',(1.,0.,0.));
#485=DIRECTION('center_axis',(0.,1.,0.));
#486=DIRECTION('ref_axis',(1.,0.,0.));
#487=DIRECTION('center_axis',(0.,-1.,0.));
#488=DIRECTION('ref_axis',(1.,0.,0.));
#489=DIRECTION('center_axis',(0.,1.,0.));
#490=DIRECTION('ref_axis',(1.,0.,0.));
#491=DIRECTION('center_axis',(0.,1.,0.));
#492=DIRECTION('ref_axis',(1.,0.,0.));
#493=DIRECTION('center_axis',(0.,-1.,0.));
#494=DIRECTION('ref_axis',(1.,0.,0.));
#495=DIRECTION('center_axis',(0.,1.,0.));
#496=DIRECTION('ref_axis',(1.,0.,0.));
#497=DIRECTION('center_axis',(0.,1.,0.));
#498=DIRECTION('ref_axis',(1.,0.,0.));
#499=DIRECTION('center_axis',(0.,-1.,0.));
#500=DIRECTION('ref_axis',(1.,0.,0.));
#501=DIRECTION('center_axis',(0.707106781186547,0.707106781186548,-2.09345661157837E-16));
#502=DIRECTION('ref_axis',(0.,0.,-1.));
#503=DIRECTION('',(-0.707106781186548,0.707106781186547,-1.04672830578918E-16));
#504=DIRECTION('',(2.96059473233375E-16,0.,1.));
#505=DIRECTION('',(0.707106781186548,-0.707106781186547,0.));
#506=DIRECTION('',(-2.96059473233375E-16,0.,-1.));
#507=DIRECTION('center_axis',(1.,0.,-2.96059473233375E-16));
#508=DIRECTION('ref_axis',(0.,0.,-1.));
#509=DIRECTION('',(0.,1.,0.));
#510=DIRECTION('',(2.96059473233375E-16,0.,1.));
#511=DIRECTION('',(0.,1.,0.));
#512=DIRECTION('center_axis',(0.,0.,1.));
#513=DIRECTION('ref_axis',(1.,0.,0.));
#514=DIRECTION('',(1.,0.,0.));
#515=DIRECTION('',(-0.768221279597376,0.64018439966448,0.));
#516=DIRECTION('',(0.,-1.,0.));
#517=DIRECTION('',(1.,0.,0.));
#518=DIRECTION('',(0.,1.,0.));
#519=DIRECTION('',(-0.768221279597376,-0.64018439966448,0.));
#520=DIRECTION('',(1.,0.,0.));
#521=DIRECTION('',(0.707106781186547,0.707106781186548,0.));
#522=DIRECTION('',(0.,1.,0.));
#523=DIRECTION('',(-1.,0.,0.));
#524=DIRECTION('center_axis',(0.,1.,0.));
#525=DIRECTION('ref_axis',(1.,0.,0.));
#526=DIRECTION('center_axis',(0.,1.,0.));
#527=DIRECTION('ref_axis',(1.,0.,0.));
#528=DIRECTION('center_axis',(0.,-1.,0.));
#529=DIRECTION('ref_axis',(1.,0.,0.));
#530=DIRECTION('center_axis',(0.,1.,0.));
#531=DIRECTION('ref_axis',(1.,0.,0.));
#532=DIRECTION('center_axis',(0.,1.,0.));
#533=DIRECTION('ref_axis',(1.,0.,0.));
#534=DIRECTION('center_axis',(0.,-1.,0.));
#535=DIRECTION('ref_axis',(1.,0.,0.));
#536=DIRECTION('center_axis',(0.,1.,0.));
#537=DIRECTION('ref_axis',(1.,0.,0.));
#538=DIRECTION('center_axis',(0.,1.,0.));
#539=DIRECTION('ref_axis',(1.,0.,0.));
#540=DIRECTION('center_axis',(0.,-1.,0.));
#541=DIRECTION('ref_axis',(1.,0.,0.));
#542=DIRECTION('center_axis',(0.,1.,0.));
#543=DIRECTION('ref_axis',(1.,0.,0.));
#544=DIRECTION('center_axis',(0.,1.,0.));
#545=DIRECTION('ref_axis',(1.,0.,0.));
#546=DIRECTION('center_axis',(0.,-1.,0.));
#547=DIRECTION('ref_axis',(1.,0.,0.));
#548=DIRECTION('center_axis',(-0.707106781186548,0.707106781186547,0.));
#549=DIRECTION('ref_axis',(0.,0.,1.));
#550=DIRECTION('',(0.,0.,-1.));
#551=DIRECTION('',(-0.707106781186547,-0.707106781186548,-1.04672830578918E-16));
#552=DIRECTION('',(0.,0.,1.));
#553=DIRECTION('center_axis',(-1.,0.,0.));
#554=DIRECTION('ref_axis',(0.,0.,1.));
#555=DIRECTION('',(0.,1.,0.));
#556=DIRECTION('',(0.,0.,-1.));
#557=DIRECTION('center_axis',(0.64018439966448,0.768221279597376,0.));
#558=DIRECTION('ref_axis',(0.768221279597376,-0.64018439966448,0.));
#559=DIRECTION('',(-0.768221279597376,0.64018439966448,-1.13719593682134E-16));
#560=DIRECTION('',(0.,0.,-1.));
#561=DIRECTION('',(0.,0.,1.));
#562=DIRECTION('center_axis',(-1.,0.,0.));
#563=DIRECTION('ref_axis',(0.,1.,0.));
#564=DIRECTION('',(0.,-1.,0.));
#565=DIRECTION('',(0.,0.,-1.));
#566=DIRECTION('center_axis',(-0.64018439966448,0.768221279597376,0.));
#567=DIRECTION('ref_axis',(0.768221279597376,0.64018439966448,0.));
#568=DIRECTION('',(-0.768221279597376,-0.64018439966448,-1.13719593682134E-16));
#569=DIRECTION('',(0.,0.,-1.));
#570=DIRECTION('',(0.,0.,-1.));
#571=DIRECTION('center_axis',(1.,0.,0.));
#572=DIRECTION('ref_axis',(0.,-1.,0.));
#573=DIRECTION('',(0.,1.,0.));
#574=DIRECTION('',(0.,0.,1.));
#575=DIRECTION('center_axis',(0.,1.,0.));
#576=DIRECTION('ref_axis',(0.,0.,1.));
#577=DIRECTION('',(-1.,0.,-1.48029736616688E-16));
#578=DIRECTION('center_axis',(0.,1.,0.));
#579=DIRECTION('ref_axis',(0.,0.,1.));
#580=DIRECTION('',(-1.,0.,-1.48029736616688E-16));
#581=DIRECTION('center_axis',(1.48029736616688E-16,0.,-1.));
#582=DIRECTION('ref_axis',(-1.,0.,0.));
#583=DIRECTION('',(1.,0.,1.48029736616688E-16));
#584=DIRECTION('',(-1.,0.,-1.48029736616688E-16));
#585=DIRECTION('center_axis',(0.,-1.,0.));
#586=DIRECTION('ref_axis',(0.,0.,-1.));
#587=DIRECTION('center_axis',(0.,1.,0.));
#588=DIRECTION('ref_axis',(0.,0.,1.));
#589=CARTESIAN_POINT('',(0.,0.,0.));
#590=CARTESIAN_POINT('Origin',(15.,-125.,-15.));
#591=CARTESIAN_POINT('',(12.5415,0.,-15.));
#592=CARTESIAN_POINT('Origin',(15.,0.,-15.));
#593=CARTESIAN_POINT('',(17.4585,10.,-15.));
#594=CARTESIAN_POINT('Origin',(15.,10.,-15.));
#595=CARTESIAN_POINT('Origin',(-15.,-125.,-15.));
#596=CARTESIAN_POINT('',(-17.4585,0.,-15.));
#597=CARTESIAN_POINT('Origin',(-15.,0.,-15.));
#598=CARTESIAN_POINT('',(-12.5415,10.,-15.));
#599=CARTESIAN_POINT('Origin',(-15.,10.,-15.));
#600=CARTESIAN_POINT('Origin',(45.,-125.,-15.));
#601=CARTESIAN_POINT('',(41.5,0.,-15.));
#602=CARTESIAN_POINT('Origin',(45.,0.,-15.));
#603=CARTESIAN_POINT('',(48.5,10.,-15.));
#604=CARTESIAN_POINT('Origin',(45.,10.,-15.));
#605=CARTESIAN_POINT('Origin',(-45.,-125.,-15.));
#606=CARTESIAN_POINT('',(-48.5,0.,-15.));
#607=CARTESIAN_POINT('Origin',(-45.,0.,-15.));
#608=CARTESIAN_POINT('',(-41.5,10.,-15.));
#609=CARTESIAN_POINT('Origin',(-45.,10.,-15.));
#610=CARTESIAN_POINT('Origin',(56.,6.,15.));
#611=CARTESIAN_POINT('',(60.,2.,-30.));
#612=CARTESIAN_POINT('',(52.,10.,-30.));
#613=CARTESIAN_POINT('',(58.5,3.5,-30.));
#614=CARTESIAN_POINT('',(52.,10.,30.));
#615=CARTESIAN_POINT('',(52.,10.,15.));
#616=CARTESIAN_POINT('',(60.,2.,30.));
#617=CARTESIAN_POINT('',(28.5,33.5,30.));
#618=CARTESIAN_POINT('',(60.,2.,15.));
#619=CARTESIAN_POINT('Origin',(60.,0.,30.));
#620=CARTESIAN_POINT('',(60.,0.,30.));
#621=CARTESIAN_POINT('',(60.,0.,30.));
#622=CARTESIAN_POINT('',(60.,0.,-30.));
#623=CARTESIAN_POINT('',(60.,0.,-30.));
#624=CARTESIAN_POINT('',(60.,0.,-30.));
#625=CARTESIAN_POINT('Origin',(-60.,0.,30.));
#626=CARTESIAN_POINT('',(36.,10.,30.));
#627=CARTESIAN_POINT('',(60.,10.,30.));
#628=CARTESIAN_POINT('',(30.,15.,30.));
#629=CARTESIAN_POINT('',(36.,10.,30.));
#630=CARTESIAN_POINT('',(30.,10.,30.));
#631=CARTESIAN_POINT('',(30.,15.,30.));
#632=CARTESIAN_POINT('',(-30.,10.,30.));
#633=CARTESIAN_POINT('',(60.,10.,30.));
#634=CARTESIAN_POINT('',(-30.,15.,30.));
#635=CARTESIAN_POINT('',(-30.,10.,30.));
#636=CARTESIAN_POINT('',(-36.,10.,30.));
#637=CARTESIAN_POINT('',(-30.,15.,30.));
#638=CARTESIAN_POINT('',(-52.,10.,30.));
#639=CARTESIAN_POINT('',(60.,10.,30.));
#640=CARTESIAN_POINT('',(-60.,2.,30.));
#641=CARTESIAN_POINT('',(-58.5,3.5,30.));
#642=CARTESIAN_POINT('',(-60.,0.,30.));
#643=CARTESIAN_POINT('',(-60.,0.,30.));
#644=CARTESIAN_POINT('',(60.,0.,30.));
#645=CARTESIAN_POINT('Origin',(-45.,-125.,15.));
#646=CARTESIAN_POINT('',(-48.5,0.,15.));
#647=CARTESIAN_POINT('Origin',(-45.,0.,15.));
#648=CARTESIAN_POINT('',(-41.5,10.,15.));
#649=CARTESIAN_POINT('Origin',(-45.,10.,15.));
#650=CARTESIAN_POINT('Origin',(45.,-125.,15.));
#651=CARTESIAN_POINT('',(41.5,0.,15.));
#652=CARTESIAN_POINT('Origin',(45.,0.,15.));
#653=CARTESIAN_POINT('',(48.5,10.,15.));
#654=CARTESIAN_POINT('Origin',(45.,10.,15.));
#655=CARTESIAN_POINT('Origin',(-15.,-125.,15.));
#656=CARTESIAN_POINT('',(-17.4585,0.,15.));
#657=CARTESIAN_POINT('Origin',(-15.,0.,15.));
#658=CARTESIAN_POINT('',(-12.5415,10.,15.));
#659=CARTESIAN_POINT('Origin',(-15.,10.,15.));
#660=CARTESIAN_POINT('Origin',(15.,-125.,15.));
#661=CARTESIAN_POINT('',(12.5415,0.,15.));
#662=CARTESIAN_POINT('Origin',(15.,0.,15.));
#663=CARTESIAN_POINT('',(17.4585,10.,15.));
#664=CARTESIAN_POINT('Origin',(15.,10.,15.));
#665=CARTESIAN_POINT('Origin',(-56.,6.,-15.));
#666=CARTESIAN_POINT('',(-52.,10.,-30.));
#667=CARTESIAN_POINT('',(-52.,10.,-15.));
#668=CARTESIAN_POINT('',(-60.,2.,-30.));
#669=CARTESIAN_POINT('',(-28.5,33.5,-30.));
#670=CARTESIAN_POINT('',(-60.,2.,-15.));
#671=CARTESIAN_POINT('Origin',(-60.,0.,-30.));
#672=CARTESIAN_POINT('',(-60.,0.,-30.));
#673=CARTESIAN_POINT('',(-60.,0.,-30.));
#674=CARTESIAN_POINT('',(-60.,0.,30.));
#675=CARTESIAN_POINT('Origin',(30.,15.,30.));
#676=CARTESIAN_POINT('',(36.,10.,-30.));
#677=CARTESIAN_POINT('',(30.,15.,-30.));
#678=CARTESIAN_POINT('',(21.7622950819672,21.8647540983607,-30.));
#679=CARTESIAN_POINT('',(30.,15.,30.));
#680=CARTESIAN_POINT('',(36.,10.,15.));
#681=CARTESIAN_POINT('Origin',(30.,10.,30.));
#682=CARTESIAN_POINT('',(30.,10.,-30.));
#683=CARTESIAN_POINT('',(30.,11.25,-30.));
#684=CARTESIAN_POINT('',(30.,10.,15.));
#685=CARTESIAN_POINT('Origin',(-36.,10.,30.));
#686=CARTESIAN_POINT('',(-30.,15.,-30.));
#687=CARTESIAN_POINT('',(-36.,10.,-30.));
#688=CARTESIAN_POINT('',(-24.7622950819672,19.3647540983607,-30.));
#689=CARTESIAN_POINT('',(-36.,10.,15.));
#690=CARTESIAN_POINT('',(-30.,15.,30.));
#691=CARTESIAN_POINT('Origin',(-30.,15.,30.));
#692=CARTESIAN_POINT('',(-30.,10.,-30.));
#693=CARTESIAN_POINT('',(-30.,13.75,-30.));
#694=CARTESIAN_POINT('',(-30.,10.,15.));
#695=CARTESIAN_POINT('Origin',(-1.77635683940025E-14,10.,8.88178419700125E-15));
#696=CARTESIAN_POINT('',(-60.,10.,-30.));
#697=CARTESIAN_POINT('Origin',(-1.77635683940025E-14,10.,8.88178419700125E-15));
#698=CARTESIAN_POINT('',(-60.,10.,-30.));
#699=CARTESIAN_POINT('Origin',(60.,0.,-30.));
#700=CARTESIAN_POINT('',(-60.,0.,-30.));
#701=CARTESIAN_POINT('',(-60.,10.,-30.));
#702=CARTESIAN_POINT('Origin',(-1.77635683940025E-14,0.,7.40148683083438E-15));
#703=CARTESIAN_POINT('Origin',(-1.77635683940025E-14,10.,8.88178419700125E-15));
#704=UNCERTAINTY_MEASURE_WITH_UNIT(LENGTH_MEASURE(0.01),#708,
'DISTANCE_ACCURACY_VALUE',
'Maximum model space distance between geometric entities at asserted c
onnectivities');
#705=UNCERTAINTY_MEASURE_WITH_UNIT(LENGTH_MEASURE(1.E-6),#708,
'DISTANCE_ACCURACY_VALUE',
'Maximum model space distance between geometric entities at asserted c
onnectivities');
#706=(
GEOMETRIC_REPRESENTATION_CONTEXT(3)
GLOBAL_UNCERTAINTY_ASSIGNED_CONTEXT((#704))
GLOBAL_UNIT_ASSIGNED_CONTEXT((#708,#711,#709))
REPRESENTATION_CONTEXT('','3D')
);
#707=(
GEOMETRIC_REPRESENTATION_CONTEXT(3)
GLOBAL_UNCERTAINTY_ASSIGNED_CONTEXT((#705))
GLOBAL_UNIT_ASSIGNED_CONTEXT((#708,#711,#709))
REPRESENTATION_CONTEXT('','3D')
);
#708=(
LENGTH_UNIT()
NAMED_UNIT(*)
SI_UNIT(.MILLI.,.METRE.)
);
#709=(
NAMED_UNIT(*)
SI_UNIT($,.STERADIAN.)
SOLID_ANGLE_UNIT()
);
#710=DIMENSIONAL_EXPONENTS(0.,0.,0.,0.,0.,0.,0.);
#711=(
CONVERSION_BASED_UNIT('degree',#713)
NAMED_UNIT(#710)
PLANE_ANGLE_UNIT()
);
#712=(
NAMED_UNIT(*)
PLANE_ANGLE_UNIT()
SI_UNIT($,.RADIAN.)
);
#713=PLANE_ANGLE_MEASURE_WITH_UNIT(PLANE_ANGLE_MEASURE(0.01745329252),#712);
#714=SHAPE_DEFINITION_REPRESENTATION(#715,#716);
#715=PRODUCT_DEFINITION_SHAPE('',$,#718);
#716=SHAPE_REPRESENTATION('',(#436),#706);
#717=PRODUCT_DEFINITION_CONTEXT('part definition',#722,'design');
#718=PRODUCT_DEFINITION('DAF6060-6','DAF6060-6',#719,#717);
#719=PRODUCT_DEFINITION_FORMATION('',$,#724);
#720=PRODUCT_RELATED_PRODUCT_CATEGORY('DAF6060-6','DAF6060-6',(#724));
#721=APPLICATION_PROTOCOL_DEFINITION('international standard',
'automotive_design',2009,#722);
#722=APPLICATION_CONTEXT(
'Core Data for Automotive Mechanical Design Process');
#723=PRODUCT_CONTEXT('part definition',#722,'mechanical');
#724=PRODUCT('DAF6060-6','DAF6060-6',$,(#723));
#725=PRESENTATION_STYLE_ASSIGNMENT((#726));
#726=SURFACE_STYLE_USAGE(.BOTH.,#727);
#727=SURFACE_SIDE_STYLE($,(#728));
#728=SURFACE_STYLE_FILL_AREA(#729);
#729=FILL_AREA_STYLE($,(#730));
#730=FILL_AREA_STYLE_COLOUR($,#731);
#731=COLOUR_RGB('',0.749019607843137,0.749019607843137,0.749019607843137);
ENDSEC;
END-ISO-10303-21;
