ISO-10303-21;
HEADER;
/* Generated by software containing ST-Developer
 * from STEP Tools, Inc. (www.steptools.com) 
 */

FILE_DESCRIPTION(
/* description */ (''),
/* implementation_level */ '2;1');

FILE_NAME(
/* name */ 'D:\\\X2\96F64EF6\X0\\\M6\X2\7CFB5217\X0\\\\X2\914D4EF6\X0\\\
DAF6030-6.stp',
/* time_stamp */ '2025-03-27T10:12:58+08:00',
/* author */ ('1091212-1'),
/* organization */ (''),
/* preprocessor_version */ 'ST-DEVELOPER v15.6',
/* originating_system */ 'Autodesk Inventor 2015',
/* authorisation */ '');

FILE_SCHEMA (('AUTOMOTIVE_DESIGN { 1 0 10303 214 3 1 1 }'));
ENDSEC;

DATA;
#10=MECHANICAL_DESIGN_GEOMETRIC_PRESENTATION_REPRESENTATION('',(#13),#571);
#11=SHAPE_REPRESENTATION_RELATIONSHIP('SRR','None',#580,#12);
#12=ADVANCED_BREP_SHAPE_REPRESENTATION($,(#14),#570);
#13=STYLED_ITEM('',(#589),#14);
#14=MANIFOLD_SOLID_BREP('\X2\5BE69AD4\X0\1',#355);
#15=LINE('',#497,#51);
#16=LINE('',#499,#52);
#17=LINE('',#501,#53);
#18=LINE('',#502,#54);
#19=LINE('',#505,#55);
#20=LINE('',#507,#56);
#21=LINE('',#508,#57);
#22=LINE('',#511,#58);
#23=LINE('',#513,#59);
#24=LINE('',#515,#60);
#25=LINE('',#517,#61);
#26=LINE('',#519,#62);
#27=LINE('',#521,#63);
#28=LINE('',#523,#64);
#29=LINE('',#525,#65);
#30=LINE('',#527,#66);
#31=LINE('',#528,#67);
#32=LINE('',#531,#68);
#33=LINE('',#533,#69);
#34=LINE('',#534,#70);
#35=LINE('',#537,#71);
#36=LINE('',#538,#72);
#37=LINE('',#542,#73);
#38=LINE('',#543,#74);
#39=LINE('',#544,#75);
#40=LINE('',#547,#76);
#41=LINE('',#548,#77);
#42=LINE('',#552,#78);
#43=LINE('',#553,#79);
#44=LINE('',#554,#80);
#45=LINE('',#557,#81);
#46=LINE('',#558,#82);
#47=LINE('',#560,#83);
#48=LINE('',#562,#84);
#49=LINE('',#564,#85);
#50=LINE('',#565,#86);
#51=VECTOR('',#411,4.24264068711929);
#52=VECTOR('',#412,30.);
#53=VECTOR('',#413,4.24264068711929);
#54=VECTOR('',#414,30.);
#55=VECTOR('',#417,2.);
#56=VECTOR('',#418,30.);
#57=VECTOR('',#419,2.);
#58=VECTOR('',#422,21.);
#59=VECTOR('',#423,7.81024967590665);
#60=VECTOR('',#424,5.);
#61=VECTOR('',#425,60.);
#62=VECTOR('',#426,5.);
#63=VECTOR('',#427,7.81024967590666);
#64=VECTOR('',#428,21.);
#65=VECTOR('',#429,4.24264068711929);
#66=VECTOR('',#430,2.);
#67=VECTOR('',#431,120.);
#68=VECTOR('',#434,30.);
#69=VECTOR('',#435,4.24264068711929);
#70=VECTOR('',#436,30.);
#71=VECTOR('',#439,2.);
#72=VECTOR('',#440,30.);
#73=VECTOR('',#443,7.81024967590665);
#74=VECTOR('',#444,30.);
#75=VECTOR('',#445,30.);
#76=VECTOR('',#448,5.);
#77=VECTOR('',#449,30.);
#78=VECTOR('',#452,7.81024967590666);
#79=VECTOR('',#453,30.);
#80=VECTOR('',#454,30.);
#81=VECTOR('',#457,5.);
#82=VECTOR('',#458,30.);
#83=VECTOR('',#461,21.);
#84=VECTOR('',#464,21.);
#85=VECTOR('',#467,120.);
#86=VECTOR('',#468,60.);
#87=PLANE('',#369);
#88=PLANE('',#370);
#89=PLANE('',#371);
#90=PLANE('',#372);
#91=PLANE('',#373);
#92=PLANE('',#374);
#93=PLANE('',#375);
#94=PLANE('',#376);
#95=PLANE('',#377);
#96=PLANE('',#378);
#97=PLANE('',#379);
#98=PLANE('',#380);
#99=PLANE('',#381);
#100=PLANE('',#382);
#101=FACE_BOUND('',#132,.T.);
#102=FACE_BOUND('',#134,.T.);
#103=FACE_BOUND('',#136,.T.);
#104=FACE_BOUND('',#138,.T.);
#105=FACE_BOUND('',#149,.T.);
#106=FACE_BOUND('',#151,.T.);
#107=FACE_BOUND('',#154,.T.);
#108=FACE_BOUND('',#155,.T.);
#109=FACE_BOUND('',#156,.T.);
#110=FACE_BOUND('',#157,.T.);
#111=FACE_BOUND('',#159,.T.);
#112=FACE_BOUND('',#160,.T.);
#113=FACE_OUTER_BOUND('',#131,.T.);
#114=FACE_OUTER_BOUND('',#133,.T.);
#115=FACE_OUTER_BOUND('',#135,.T.);
#116=FACE_OUTER_BOUND('',#137,.T.);
#117=FACE_OUTER_BOUND('',#139,.T.);
#118=FACE_OUTER_BOUND('',#140,.T.);
#119=FACE_OUTER_BOUND('',#141,.T.);
#120=FACE_OUTER_BOUND('',#142,.T.);
#121=FACE_OUTER_BOUND('',#143,.T.);
#122=FACE_OUTER_BOUND('',#144,.T.);
#123=FACE_OUTER_BOUND('',#145,.T.);
#124=FACE_OUTER_BOUND('',#146,.T.);
#125=FACE_OUTER_BOUND('',#147,.T.);
#126=FACE_OUTER_BOUND('',#148,.T.);
#127=FACE_OUTER_BOUND('',#150,.T.);
#128=FACE_OUTER_BOUND('',#152,.T.);
#129=FACE_OUTER_BOUND('',#153,.T.);
#130=FACE_OUTER_BOUND('',#158,.T.);
#131=EDGE_LOOP('',(#245));
#132=EDGE_LOOP('',(#246));
#133=EDGE_LOOP('',(#247));
#134=EDGE_LOOP('',(#248));
#135=EDGE_LOOP('',(#249));
#136=EDGE_LOOP('',(#250));
#137=EDGE_LOOP('',(#251));
#138=EDGE_LOOP('',(#252));
#139=EDGE_LOOP('',(#253,#254,#255,#256));
#140=EDGE_LOOP('',(#257,#258,#259,#260));
#141=EDGE_LOOP('',(#261,#262,#263,#264,#265,#266,#267,#268,#269,#270,#271,
#272));
#142=EDGE_LOOP('',(#273,#274,#275,#276));
#143=EDGE_LOOP('',(#277,#278,#279,#280));
#144=EDGE_LOOP('',(#281,#282,#283,#284));
#145=EDGE_LOOP('',(#285,#286,#287,#288));
#146=EDGE_LOOP('',(#289,#290,#291,#292));
#147=EDGE_LOOP('',(#293,#294,#295,#296));
#148=EDGE_LOOP('',(#297,#298,#299,#300));
#149=EDGE_LOOP('',(#301));
#150=EDGE_LOOP('',(#302,#303,#304,#305));
#151=EDGE_LOOP('',(#306));
#152=EDGE_LOOP('',(#307,#308,#309,#310,#311,#312,#313,#314,#315,#316,#317,
#318));
#153=EDGE_LOOP('',(#319,#320,#321,#322));
#154=EDGE_LOOP('',(#323));
#155=EDGE_LOOP('',(#324));
#156=EDGE_LOOP('',(#325));
#157=EDGE_LOOP('',(#326));
#158=EDGE_LOOP('',(#327,#328,#329,#330));
#159=EDGE_LOOP('',(#331));
#160=EDGE_LOOP('',(#332));
#161=CIRCLE('',#358,3.5);
#162=CIRCLE('',#359,3.5);
#163=CIRCLE('',#361,3.5);
#164=CIRCLE('',#362,3.5);
#165=CIRCLE('',#364,2.4585);
#166=CIRCLE('',#365,2.4585);
#167=CIRCLE('',#367,2.4585);
#168=CIRCLE('',#368,2.4585);
#169=VERTEX_POINT('',#475);
#170=VERTEX_POINT('',#477);
#171=VERTEX_POINT('',#480);
#172=VERTEX_POINT('',#482);
#173=VERTEX_POINT('',#485);
#174=VERTEX_POINT('',#487);
#175=VERTEX_POINT('',#490);
#176=VERTEX_POINT('',#492);
#177=VERTEX_POINT('',#495);
#178=VERTEX_POINT('',#496);
#179=VERTEX_POINT('',#498);
#180=VERTEX_POINT('',#500);
#181=VERTEX_POINT('',#504);
#182=VERTEX_POINT('',#506);
#183=VERTEX_POINT('',#510);
#184=VERTEX_POINT('',#512);
#185=VERTEX_POINT('',#514);
#186=VERTEX_POINT('',#516);
#187=VERTEX_POINT('',#518);
#188=VERTEX_POINT('',#520);
#189=VERTEX_POINT('',#522);
#190=VERTEX_POINT('',#524);
#191=VERTEX_POINT('',#526);
#192=VERTEX_POINT('',#530);
#193=VERTEX_POINT('',#532);
#194=VERTEX_POINT('',#536);
#195=VERTEX_POINT('',#540);
#196=VERTEX_POINT('',#541);
#197=VERTEX_POINT('',#546);
#198=VERTEX_POINT('',#550);
#199=VERTEX_POINT('',#551);
#200=VERTEX_POINT('',#556);
#201=EDGE_CURVE('',#169,#169,#161,.T.);
#202=EDGE_CURVE('',#170,#170,#162,.T.);
#203=EDGE_CURVE('',#171,#171,#163,.T.);
#204=EDGE_CURVE('',#172,#172,#164,.T.);
#205=EDGE_CURVE('',#173,#173,#165,.T.);
#206=EDGE_CURVE('',#174,#174,#166,.T.);
#207=EDGE_CURVE('',#175,#175,#167,.T.);
#208=EDGE_CURVE('',#176,#176,#168,.T.);
#209=EDGE_CURVE('',#177,#178,#15,.T.);
#210=EDGE_CURVE('',#178,#179,#16,.T.);
#211=EDGE_CURVE('',#179,#180,#17,.T.);
#212=EDGE_CURVE('',#180,#177,#18,.T.);
#213=EDGE_CURVE('',#181,#180,#19,.T.);
#214=EDGE_CURVE('',#182,#181,#20,.T.);
#215=EDGE_CURVE('',#182,#177,#21,.T.);
#216=EDGE_CURVE('',#183,#179,#22,.T.);
#217=EDGE_CURVE('',#183,#184,#23,.T.);
#218=EDGE_CURVE('',#184,#185,#24,.T.);
#219=EDGE_CURVE('',#186,#185,#25,.T.);
#220=EDGE_CURVE('',#186,#187,#26,.T.);
#221=EDGE_CURVE('',#187,#188,#27,.T.);
#222=EDGE_CURVE('',#189,#188,#28,.T.);
#223=EDGE_CURVE('',#190,#189,#29,.T.);
#224=EDGE_CURVE('',#191,#190,#30,.T.);
#225=EDGE_CURVE('',#181,#191,#31,.T.);
#226=EDGE_CURVE('',#189,#192,#32,.T.);
#227=EDGE_CURVE('',#192,#193,#33,.T.);
#228=EDGE_CURVE('',#193,#190,#34,.T.);
#229=EDGE_CURVE('',#194,#193,#35,.T.);
#230=EDGE_CURVE('',#191,#194,#36,.T.);
#231=EDGE_CURVE('',#195,#196,#37,.T.);
#232=EDGE_CURVE('',#184,#196,#38,.T.);
#233=EDGE_CURVE('',#195,#183,#39,.T.);
#234=EDGE_CURVE('',#196,#197,#40,.T.);
#235=EDGE_CURVE('',#185,#197,#41,.T.);
#236=EDGE_CURVE('',#198,#199,#42,.T.);
#237=EDGE_CURVE('',#188,#199,#43,.T.);
#238=EDGE_CURVE('',#187,#198,#44,.T.);
#239=EDGE_CURVE('',#200,#198,#45,.T.);
#240=EDGE_CURVE('',#200,#186,#46,.T.);
#241=EDGE_CURVE('',#178,#195,#47,.T.);
#242=EDGE_CURVE('',#199,#192,#48,.T.);
#243=EDGE_CURVE('',#194,#182,#49,.T.);
#244=EDGE_CURVE('',#197,#200,#50,.T.);
#245=ORIENTED_EDGE('',*,*,#201,.F.);
#246=ORIENTED_EDGE('',*,*,#202,.F.);
#247=ORIENTED_EDGE('',*,*,#203,.F.);
#248=ORIENTED_EDGE('',*,*,#204,.F.);
#249=ORIENTED_EDGE('',*,*,#205,.F.);
#250=ORIENTED_EDGE('',*,*,#206,.F.);
#251=ORIENTED_EDGE('',*,*,#207,.F.);
#252=ORIENTED_EDGE('',*,*,#208,.F.);
#253=ORIENTED_EDGE('',*,*,#209,.T.);
#254=ORIENTED_EDGE('',*,*,#210,.T.);
#255=ORIENTED_EDGE('',*,*,#211,.T.);
#256=ORIENTED_EDGE('',*,*,#212,.T.);
#257=ORIENTED_EDGE('',*,*,#212,.F.);
#258=ORIENTED_EDGE('',*,*,#213,.F.);
#259=ORIENTED_EDGE('',*,*,#214,.F.);
#260=ORIENTED_EDGE('',*,*,#215,.T.);
#261=ORIENTED_EDGE('',*,*,#211,.F.);
#262=ORIENTED_EDGE('',*,*,#216,.F.);
#263=ORIENTED_EDGE('',*,*,#217,.T.);
#264=ORIENTED_EDGE('',*,*,#218,.T.);
#265=ORIENTED_EDGE('',*,*,#219,.F.);
#266=ORIENTED_EDGE('',*,*,#220,.T.);
#267=ORIENTED_EDGE('',*,*,#221,.T.);
#268=ORIENTED_EDGE('',*,*,#222,.F.);
#269=ORIENTED_EDGE('',*,*,#223,.F.);
#270=ORIENTED_EDGE('',*,*,#224,.F.);
#271=ORIENTED_EDGE('',*,*,#225,.F.);
#272=ORIENTED_EDGE('',*,*,#213,.T.);
#273=ORIENTED_EDGE('',*,*,#223,.T.);
#274=ORIENTED_EDGE('',*,*,#226,.T.);
#275=ORIENTED_EDGE('',*,*,#227,.T.);
#276=ORIENTED_EDGE('',*,*,#228,.T.);
#277=ORIENTED_EDGE('',*,*,#228,.F.);
#278=ORIENTED_EDGE('',*,*,#229,.F.);
#279=ORIENTED_EDGE('',*,*,#230,.F.);
#280=ORIENTED_EDGE('',*,*,#224,.T.);
#281=ORIENTED_EDGE('',*,*,#231,.T.);
#282=ORIENTED_EDGE('',*,*,#232,.F.);
#283=ORIENTED_EDGE('',*,*,#217,.F.);
#284=ORIENTED_EDGE('',*,*,#233,.F.);
#285=ORIENTED_EDGE('',*,*,#234,.T.);
#286=ORIENTED_EDGE('',*,*,#235,.F.);
#287=ORIENTED_EDGE('',*,*,#218,.F.);
#288=ORIENTED_EDGE('',*,*,#232,.T.);
#289=ORIENTED_EDGE('',*,*,#236,.T.);
#290=ORIENTED_EDGE('',*,*,#237,.F.);
#291=ORIENTED_EDGE('',*,*,#221,.F.);
#292=ORIENTED_EDGE('',*,*,#238,.T.);
#293=ORIENTED_EDGE('',*,*,#239,.T.);
#294=ORIENTED_EDGE('',*,*,#238,.F.);
#295=ORIENTED_EDGE('',*,*,#220,.F.);
#296=ORIENTED_EDGE('',*,*,#240,.F.);
#297=ORIENTED_EDGE('',*,*,#210,.F.);
#298=ORIENTED_EDGE('',*,*,#241,.T.);
#299=ORIENTED_EDGE('',*,*,#233,.T.);
#300=ORIENTED_EDGE('',*,*,#216,.T.);
#301=ORIENTED_EDGE('',*,*,#204,.T.);
#302=ORIENTED_EDGE('',*,*,#226,.F.);
#303=ORIENTED_EDGE('',*,*,#222,.T.);
#304=ORIENTED_EDGE('',*,*,#237,.T.);
#305=ORIENTED_EDGE('',*,*,#242,.T.);
#306=ORIENTED_EDGE('',*,*,#202,.T.);
#307=ORIENTED_EDGE('',*,*,#209,.F.);
#308=ORIENTED_EDGE('',*,*,#215,.F.);
#309=ORIENTED_EDGE('',*,*,#243,.F.);
#310=ORIENTED_EDGE('',*,*,#229,.T.);
#311=ORIENTED_EDGE('',*,*,#227,.F.);
#312=ORIENTED_EDGE('',*,*,#242,.F.);
#313=ORIENTED_EDGE('',*,*,#236,.F.);
#314=ORIENTED_EDGE('',*,*,#239,.F.);
#315=ORIENTED_EDGE('',*,*,#244,.F.);
#316=ORIENTED_EDGE('',*,*,#234,.F.);
#317=ORIENTED_EDGE('',*,*,#231,.F.);
#318=ORIENTED_EDGE('',*,*,#241,.F.);
#319=ORIENTED_EDGE('',*,*,#225,.T.);
#320=ORIENTED_EDGE('',*,*,#230,.T.);
#321=ORIENTED_EDGE('',*,*,#243,.T.);
#322=ORIENTED_EDGE('',*,*,#214,.T.);
#323=ORIENTED_EDGE('',*,*,#201,.T.);
#324=ORIENTED_EDGE('',*,*,#203,.T.);
#325=ORIENTED_EDGE('',*,*,#205,.T.);
#326=ORIENTED_EDGE('',*,*,#207,.T.);
#327=ORIENTED_EDGE('',*,*,#235,.T.);
#328=ORIENTED_EDGE('',*,*,#244,.T.);
#329=ORIENTED_EDGE('',*,*,#240,.T.);
#330=ORIENTED_EDGE('',*,*,#219,.T.);
#331=ORIENTED_EDGE('',*,*,#206,.T.);
#332=ORIENTED_EDGE('',*,*,#208,.T.);
#333=CYLINDRICAL_SURFACE('',#357,3.5);
#334=CYLINDRICAL_SURFACE('',#360,3.5);
#335=CYLINDRICAL_SURFACE('',#363,2.4585);
#336=CYLINDRICAL_SURFACE('',#366,2.4585);
#337=ADVANCED_FACE('',(#113,#101),#333,.F.);
#338=ADVANCED_FACE('',(#114,#102),#334,.F.);
#339=ADVANCED_FACE('',(#115,#103),#335,.F.);
#340=ADVANCED_FACE('',(#116,#104),#336,.F.);
#341=ADVANCED_FACE('',(#117),#87,.T.);
#342=ADVANCED_FACE('',(#118),#88,.T.);
#343=ADVANCED_FACE('',(#119),#89,.T.);
#344=ADVANCED_FACE('',(#120),#90,.T.);
#345=ADVANCED_FACE('',(#121),#91,.T.);
#346=ADVANCED_FACE('',(#122),#92,.T.);
#347=ADVANCED_FACE('',(#123),#93,.T.);
#348=ADVANCED_FACE('',(#124),#94,.T.);
#349=ADVANCED_FACE('',(#125),#95,.T.);
#350=ADVANCED_FACE('',(#126,#105),#96,.T.);
#351=ADVANCED_FACE('',(#127,#106),#97,.T.);
#352=ADVANCED_FACE('',(#128),#98,.T.);
#353=ADVANCED_FACE('',(#129,#107,#108,#109,#110),#99,.F.);
#354=ADVANCED_FACE('',(#130,#111,#112),#100,.T.);
#355=CLOSED_SHELL('',(#337,#338,#339,#340,#341,#342,#343,#344,#345,#346,
#347,#348,#349,#350,#351,#352,#353,#354));
#356=AXIS2_PLACEMENT_3D('placement',#473,#383,#384);
#357=AXIS2_PLACEMENT_3D('',#474,#385,#386);
#358=AXIS2_PLACEMENT_3D('',#476,#387,#388);
#359=AXIS2_PLACEMENT_3D('',#478,#389,#390);
#360=AXIS2_PLACEMENT_3D('',#479,#391,#392);
#361=AXIS2_PLACEMENT_3D('',#481,#393,#394);
#362=AXIS2_PLACEMENT_3D('',#483,#395,#396);
#363=AXIS2_PLACEMENT_3D('',#484,#397,#398);
#364=AXIS2_PLACEMENT_3D('',#486,#399,#400);
#365=AXIS2_PLACEMENT_3D('',#488,#401,#402);
#366=AXIS2_PLACEMENT_3D('',#489,#403,#404);
#367=AXIS2_PLACEMENT_3D('',#491,#405,#406);
#368=AXIS2_PLACEMENT_3D('',#493,#407,#408);
#369=AXIS2_PLACEMENT_3D('',#494,#409,#410);
#370=AXIS2_PLACEMENT_3D('',#503,#415,#416);
#371=AXIS2_PLACEMENT_3D('',#509,#420,#421);
#372=AXIS2_PLACEMENT_3D('',#529,#432,#433);
#373=AXIS2_PLACEMENT_3D('',#535,#437,#438);
#374=AXIS2_PLACEMENT_3D('',#539,#441,#442);
#375=AXIS2_PLACEMENT_3D('',#545,#446,#447);
#376=AXIS2_PLACEMENT_3D('',#549,#450,#451);
#377=AXIS2_PLACEMENT_3D('',#555,#455,#456);
#378=AXIS2_PLACEMENT_3D('',#559,#459,#460);
#379=AXIS2_PLACEMENT_3D('',#561,#462,#463);
#380=AXIS2_PLACEMENT_3D('',#563,#465,#466);
#381=AXIS2_PLACEMENT_3D('',#566,#469,#470);
#382=AXIS2_PLACEMENT_3D('',#567,#471,#472);
#383=DIRECTION('axis',(0.,0.,1.));
#384=DIRECTION('refdir',(1.,0.,0.));
#385=DIRECTION('center_axis',(0.,1.,0.));
#386=DIRECTION('ref_axis',(1.,0.,0.));
#387=DIRECTION('center_axis',(0.,1.,0.));
#388=DIRECTION('ref_axis',(1.,0.,0.));
#389=DIRECTION('center_axis',(0.,-1.,0.));
#390=DIRECTION('ref_axis',(1.,0.,0.));
#391=DIRECTION('center_axis',(0.,1.,0.));
#392=DIRECTION('ref_axis',(1.,0.,0.));
#393=DIRECTION('center_axis',(0.,1.,0.));
#394=DIRECTION('ref_axis',(1.,0.,0.));
#395=DIRECTION('center_axis',(0.,-1.,0.));
#396=DIRECTION('ref_axis',(1.,0.,0.));
#397=DIRECTION('center_axis',(0.,1.,0.));
#398=DIRECTION('ref_axis',(1.,0.,0.));
#399=DIRECTION('center_axis',(0.,1.,0.));
#400=DIRECTION('ref_axis',(1.,0.,0.));
#401=DIRECTION('center_axis',(0.,-1.,0.));
#402=DIRECTION('ref_axis',(1.,0.,0.));
#403=DIRECTION('center_axis',(0.,1.,0.));
#404=DIRECTION('ref_axis',(1.,0.,0.));
#405=DIRECTION('center_axis',(0.,1.,0.));
#406=DIRECTION('ref_axis',(1.,0.,0.));
#407=DIRECTION('center_axis',(0.,-1.,0.));
#408=DIRECTION('ref_axis',(1.,0.,0.));
#409=DIRECTION('center_axis',(0.707106781186548,0.707106781186547,0.));
#410=DIRECTION('ref_axis',(0.,0.,-1.));
#411=DIRECTION('',(-0.707106781186547,0.707106781186548,0.));
#412=DIRECTION('',(0.,0.,1.));
#413=DIRECTION('',(0.707106781186547,-0.707106781186548,0.));
#414=DIRECTION('',(0.,0.,-1.));
#415=DIRECTION('center_axis',(1.,0.,0.));
#416=DIRECTION('ref_axis',(0.,0.,-1.));
#417=DIRECTION('',(0.,1.,0.));
#418=DIRECTION('',(0.,0.,1.));
#419=DIRECTION('',(0.,1.,0.));
#420=DIRECTION('center_axis',(0.,0.,1.));
#421=DIRECTION('ref_axis',(1.,0.,0.));
#422=DIRECTION('',(1.,0.,0.));
#423=DIRECTION('',(-0.768221279597376,0.64018439966448,0.));
#424=DIRECTION('',(0.,-1.,0.));
#425=DIRECTION('',(1.,0.,0.));
#426=DIRECTION('',(0.,1.,0.));
#427=DIRECTION('',(-0.768221279597376,-0.64018439966448,0.));
#428=DIRECTION('',(1.,0.,0.));
#429=DIRECTION('',(0.707106781186547,0.707106781186548,0.));
#430=DIRECTION('',(0.,1.,0.));
#431=DIRECTION('',(-1.,0.,0.));
#432=DIRECTION('center_axis',(-0.707106781186548,0.707106781186547,0.));
#433=DIRECTION('ref_axis',(0.,0.,1.));
#434=DIRECTION('',(0.,0.,-1.));
#435=DIRECTION('',(-0.707106781186547,-0.707106781186548,0.));
#436=DIRECTION('',(0.,0.,1.));
#437=DIRECTION('center_axis',(-1.,0.,0.));
#438=DIRECTION('ref_axis',(0.,0.,1.));
#439=DIRECTION('',(0.,1.,0.));
#440=DIRECTION('',(0.,0.,-1.));
#441=DIRECTION('center_axis',(0.64018439966448,0.768221279597376,0.));
#442=DIRECTION('ref_axis',(0.768221279597376,-0.64018439966448,0.));
#443=DIRECTION('',(-0.768221279597376,0.64018439966448,0.));
#444=DIRECTION('',(0.,0.,-1.));
#445=DIRECTION('',(0.,0.,1.));
#446=DIRECTION('center_axis',(-1.,0.,0.));
#447=DIRECTION('ref_axis',(0.,1.,0.));
#448=DIRECTION('',(0.,-1.,0.));
#449=DIRECTION('',(0.,0.,-1.));
#450=DIRECTION('center_axis',(-0.64018439966448,0.768221279597376,0.));
#451=DIRECTION('ref_axis',(0.768221279597376,0.64018439966448,0.));
#452=DIRECTION('',(-0.768221279597376,-0.64018439966448,0.));
#453=DIRECTION('',(0.,0.,-1.));
#454=DIRECTION('',(0.,0.,-1.));
#455=DIRECTION('center_axis',(1.,0.,0.));
#456=DIRECTION('ref_axis',(0.,-1.,0.));
#457=DIRECTION('',(0.,1.,0.));
#458=DIRECTION('',(0.,0.,1.));
#459=DIRECTION('center_axis',(0.,1.,0.));
#460=DIRECTION('ref_axis',(0.,0.,1.));
#461=DIRECTION('',(-1.,0.,0.));
#462=DIRECTION('center_axis',(0.,1.,0.));
#463=DIRECTION('ref_axis',(0.,0.,1.));
#464=DIRECTION('',(-1.,0.,0.));
#465=DIRECTION('center_axis',(0.,0.,-1.));
#466=DIRECTION('ref_axis',(-1.,0.,0.));
#467=DIRECTION('',(1.,0.,0.));
#468=DIRECTION('',(-1.,0.,0.));
#469=DIRECTION('center_axis',(0.,1.,0.));
#470=DIRECTION('ref_axis',(0.,0.,1.));
#471=DIRECTION('center_axis',(0.,1.,0.));
#472=DIRECTION('ref_axis',(0.,0.,1.));
#473=CARTESIAN_POINT('',(0.,0.,0.));
#474=CARTESIAN_POINT('Origin',(-45.,-119.096736459909,0.));
#475=CARTESIAN_POINT('',(-48.5,0.,4.28626379701574E-16));
#476=CARTESIAN_POINT('Origin',(-45.,0.,0.));
#477=CARTESIAN_POINT('',(-41.5,5.,0.));
#478=CARTESIAN_POINT('Origin',(-45.,5.,0.));
#479=CARTESIAN_POINT('Origin',(45.,-119.096736459909,0.));
#480=CARTESIAN_POINT('',(41.5,0.,4.28626379701574E-16));
#481=CARTESIAN_POINT('Origin',(45.,0.,0.));
#482=CARTESIAN_POINT('',(48.5,5.,0.));
#483=CARTESIAN_POINT('Origin',(45.,5.,0.));
#484=CARTESIAN_POINT('Origin',(-15.,-119.096736459909,0.));
#485=CARTESIAN_POINT('',(-17.4585,0.,3.01079415570377E-16));
#486=CARTESIAN_POINT('Origin',(-15.,0.,0.));
#487=CARTESIAN_POINT('',(-12.5415,5.,0.));
#488=CARTESIAN_POINT('Origin',(-15.,5.,0.));
#489=CARTESIAN_POINT('Origin',(15.,-119.096736459909,0.));
#490=CARTESIAN_POINT('',(12.5415,0.,3.01079415570377E-16));
#491=CARTESIAN_POINT('Origin',(15.,0.,0.));
#492=CARTESIAN_POINT('',(17.4585,5.,0.));
#493=CARTESIAN_POINT('Origin',(15.,5.,0.));
#494=CARTESIAN_POINT('Origin',(58.5,3.5,7.5));
#495=CARTESIAN_POINT('',(60.,2.,-15.));
#496=CARTESIAN_POINT('',(57.,5.,-15.));
#497=CARTESIAN_POINT('',(59.75,2.25,-15.));
#498=CARTESIAN_POINT('',(57.,5.,15.));
#499=CARTESIAN_POINT('',(57.,5.,7.5));
#500=CARTESIAN_POINT('',(60.,2.,15.));
#501=CARTESIAN_POINT('',(29.75,32.25,15.));
#502=CARTESIAN_POINT('',(60.,2.,7.5));
#503=CARTESIAN_POINT('Origin',(60.,0.,15.));
#504=CARTESIAN_POINT('',(60.,0.,15.));
#505=CARTESIAN_POINT('',(60.,0.,15.));
#506=CARTESIAN_POINT('',(60.,0.,-15.));
#507=CARTESIAN_POINT('',(60.,0.,-15.));
#508=CARTESIAN_POINT('',(60.,0.,-15.));
#509=CARTESIAN_POINT('Origin',(-60.,0.,15.));
#510=CARTESIAN_POINT('',(36.,5.,15.));
#511=CARTESIAN_POINT('',(60.,5.,15.));
#512=CARTESIAN_POINT('',(30.,10.,15.));
#513=CARTESIAN_POINT('',(36.,5.,15.));
#514=CARTESIAN_POINT('',(30.,5.,15.));
#515=CARTESIAN_POINT('',(30.,10.,15.));
#516=CARTESIAN_POINT('',(-30.,5.,15.));
#517=CARTESIAN_POINT('',(60.,5.,15.));
#518=CARTESIAN_POINT('',(-30.,10.,15.));
#519=CARTESIAN_POINT('',(-30.,5.,15.));
#520=CARTESIAN_POINT('',(-36.,5.,15.));
#521=CARTESIAN_POINT('',(-30.,10.,15.));
#522=CARTESIAN_POINT('',(-57.,5.,15.));
#523=CARTESIAN_POINT('',(60.,5.,15.));
#524=CARTESIAN_POINT('',(-60.,2.,15.));
#525=CARTESIAN_POINT('',(-59.75,2.25,15.));
#526=CARTESIAN_POINT('',(-60.,0.,15.));
#527=CARTESIAN_POINT('',(-60.,0.,15.));
#528=CARTESIAN_POINT('',(60.,0.,15.));
#529=CARTESIAN_POINT('Origin',(-58.5,3.5,-7.5));
#530=CARTESIAN_POINT('',(-57.,5.,-15.));
#531=CARTESIAN_POINT('',(-57.,5.,-7.5));
#532=CARTESIAN_POINT('',(-60.,2.,-15.));
#533=CARTESIAN_POINT('',(-29.75,32.25,-15.));
#534=CARTESIAN_POINT('',(-60.,2.,-7.5));
#535=CARTESIAN_POINT('Origin',(-60.,0.,-15.));
#536=CARTESIAN_POINT('',(-60.,0.,-15.));
#537=CARTESIAN_POINT('',(-60.,0.,-15.));
#538=CARTESIAN_POINT('',(-60.,0.,15.));
#539=CARTESIAN_POINT('Origin',(30.,10.,15.));
#540=CARTESIAN_POINT('',(36.,5.,-15.));
#541=CARTESIAN_POINT('',(30.,10.,-15.));
#542=CARTESIAN_POINT('',(21.7622950819672,16.8647540983607,-15.));
#543=CARTESIAN_POINT('',(30.,10.,15.));
#544=CARTESIAN_POINT('',(36.,5.,7.5));
#545=CARTESIAN_POINT('Origin',(30.,5.,15.));
#546=CARTESIAN_POINT('',(30.,5.,-15.));
#547=CARTESIAN_POINT('',(30.,6.25,-15.));
#548=CARTESIAN_POINT('',(30.,5.,7.5));
#549=CARTESIAN_POINT('Origin',(-36.,5.,15.));
#550=CARTESIAN_POINT('',(-30.,10.,-15.));
#551=CARTESIAN_POINT('',(-36.,5.,-15.));
#552=CARTESIAN_POINT('',(-24.7622950819672,14.3647540983607,-15.));
#553=CARTESIAN_POINT('',(-36.,5.,7.5));
#554=CARTESIAN_POINT('',(-30.,10.,15.));
#555=CARTESIAN_POINT('Origin',(-30.,10.,15.));
#556=CARTESIAN_POINT('',(-30.,5.,-15.));
#557=CARTESIAN_POINT('',(-30.,8.75,-15.));
#558=CARTESIAN_POINT('',(-30.,5.,7.5));
#559=CARTESIAN_POINT('Origin',(0.,5.,0.));
#560=CARTESIAN_POINT('',(-60.,5.,-15.));
#561=CARTESIAN_POINT('Origin',(0.,5.,0.));
#562=CARTESIAN_POINT('',(-60.,5.,-15.));
#563=CARTESIAN_POINT('Origin',(60.,0.,-15.));
#564=CARTESIAN_POINT('',(-60.,0.,-15.));
#565=CARTESIAN_POINT('',(-60.,5.,-15.));
#566=CARTESIAN_POINT('Origin',(0.,0.,0.));
#567=CARTESIAN_POINT('Origin',(0.,5.,0.));
#568=UNCERTAINTY_MEASURE_WITH_UNIT(LENGTH_MEASURE(0.01),#572,
'DISTANCE_ACCURACY_VALUE',
'Maximum model space distance between geometric entities at asserted c
onnectivities');
#569=UNCERTAINTY_MEASURE_WITH_UNIT(LENGTH_MEASURE(1.E-6),#572,
'DISTANCE_ACCURACY_VALUE',
'Maximum model space distance between geometric entities at asserted c
onnectivities');
#570=(
GEOMETRIC_REPRESENTATION_CONTEXT(3)
GLOBAL_UNCERTAINTY_ASSIGNED_CONTEXT((#568))
GLOBAL_UNIT_ASSIGNED_CONTEXT((#572,#575,#573))
REPRESENTATION_CONTEXT('','3D')
);
#571=(
GEOMETRIC_REPRESENTATION_CONTEXT(3)
GLOBAL_UNCERTAINTY_ASSIGNED_CONTEXT((#569))
GLOBAL_UNIT_ASSIGNED_CONTEXT((#572,#575,#573))
REPRESENTATION_CONTEXT('','3D')
);
#572=(
LENGTH_UNIT()
NAMED_UNIT(*)
SI_UNIT(.MILLI.,.METRE.)
);
#573=(
NAMED_UNIT(*)
SI_UNIT($,.STERADIAN.)
SOLID_ANGLE_UNIT()
);
#574=DIMENSIONAL_EXPONENTS(0.,0.,0.,0.,0.,0.,0.);
#575=(
CONVERSION_BASED_UNIT('degree',#577)
NAMED_UNIT(#574)
PLANE_ANGLE_UNIT()
);
#576=(
NAMED_UNIT(*)
PLANE_ANGLE_UNIT()
SI_UNIT($,.RADIAN.)
);
#577=PLANE_ANGLE_MEASURE_WITH_UNIT(PLANE_ANGLE_MEASURE(0.01745329252),#576);
#578=SHAPE_DEFINITION_REPRESENTATION(#579,#580);
#579=PRODUCT_DEFINITION_SHAPE('',$,#582);
#580=SHAPE_REPRESENTATION('',(#356),#570);
#581=PRODUCT_DEFINITION_CONTEXT('part definition',#586,'design');
#582=PRODUCT_DEFINITION('DAF6030-6','DAF6030-6',#583,#581);
#583=PRODUCT_DEFINITION_FORMATION('',$,#588);
#584=PRODUCT_RELATED_PRODUCT_CATEGORY('DAF6030-6','DAF6030-6',(#588));
#585=APPLICATION_PROTOCOL_DEFINITION('international standard',
'automotive_design',2009,#586);
#586=APPLICATION_CONTEXT(
'Core Data for Automotive Mechanical Design Process');
#587=PRODUCT_CONTEXT('part definition',#586,'mechanical');
#588=PRODUCT('DAF6030-6','DAF6030-6',$,(#587));
#589=PRESENTATION_STYLE_ASSIGNMENT((#590));
#590=SURFACE_STYLE_USAGE(.BOTH.,#591);
#591=SURFACE_SIDE_STYLE($,(#592));
#592=SURFACE_STYLE_FILL_AREA(#593);
#593=FILL_AREA_STYLE($,(#594));
#594=FILL_AREA_STYLE_COLOUR($,#595);
#595=COLOUR_RGB('',0.749019607843137,0.749019607843137,0.749019607843137);
ENDSEC;
END-ISO-10303-21;
