ISO-10303-21;
HEADER;
/* Generated by software containing ST-Developer
 * from STEP Tools, Inc. (www.steptools.com) 
 */

FILE_DESCRIPTION(
/* description */ (''),
/* implementation_level */ '2;1');

FILE_NAME(
/* name */ 'D:\\\X2\96F64EF6\X0\\\M6\X2\7CFB5217\X0\\\\X2\914D4EF6\X0\\\
\X2\6D3B9801\X0\\\AH306.stp',
/* time_stamp */ '2025-03-27T08:13:37+08:00',
/* author */ ('1091212-1'),
/* organization */ (''),
/* preprocessor_version */ 'ST-DEVELOPER v15.6',
/* originating_system */ 'Autodesk Inventor 2015',
/* authorisation */ '');

FILE_SCHEMA (('AUTOMOTIVE_DESIGN { 1 0 10303 214 3 1 1 }'));
ENDSEC;

DATA;
#10=MECHANICAL_DESIGN_GEOMETRIC_PRESENTATION_REPRESENTATION('',(#21),#475);
#11=ITEM_DEFINED_TRANSFORMATION($,$,#275,#308);
#12=ITEM_DEFINED_TRANSFORMATION($,$,#275,#309);
#13=(
REPRESENTATION_RELATIONSHIP($,$,#488,#489)
REPRESENTATION_RELATIONSHIP_WITH_TRANSFORMATION(#11)
SHAPE_REPRESENTATION_RELATIONSHIP()
);
#14=(
REPRESENTATION_RELATIONSHIP($,$,#488,#489)
REPRESENTATION_RELATIONSHIP_WITH_TRANSFORMATION(#12)
SHAPE_REPRESENTATION_RELATIONSHIP()
);
#15=CONTEXT_DEPENDENT_SHAPE_REPRESENTATION(#13,#486);
#16=CONTEXT_DEPENDENT_SHAPE_REPRESENTATION(#14,#487);
#17=NEXT_ASSEMBLY_USAGE_OCCURRENCE('AH306:1',$,$,#492,#491,$);
#18=NEXT_ASSEMBLY_USAGE_OCCURRENCE('AH306:2',$,$,#492,#491,$);
#19=SHAPE_REPRESENTATION_RELATIONSHIP('SRR','None',#488,#20);
#20=ADVANCED_BREP_SHAPE_REPRESENTATION($,(#22),#473);
#21=STYLED_ITEM('',(#502),#22);
#22=MANIFOLD_SOLID_BREP('\X2\5BE69AD4\X0\1',#274);
#23=LINE('',#432,#39);
#24=LINE('',#434,#40);
#25=LINE('',#436,#41);
#26=LINE('',#437,#42);
#27=LINE('',#443,#43);
#28=LINE('',#446,#44);
#29=LINE('',#448,#45);
#30=LINE('',#450,#46);
#31=LINE('',#452,#47);
#32=LINE('',#453,#48);
#33=LINE('',#455,#49);
#34=LINE('',#457,#50);
#35=LINE('',#459,#51);
#36=LINE('',#460,#52);
#37=LINE('',#462,#53);
#38=LINE('',#465,#54);
#39=VECTOR('',#356,16.);
#40=VECTOR('',#357,6.);
#41=VECTOR('',#358,16.);
#42=VECTOR('',#359,6.);
#43=VECTOR('',#364,16.);
#44=VECTOR('',#367,16.);
#45=VECTOR('',#370,0.717143142914303);
#46=VECTOR('',#371,19.);
#47=VECTOR('',#372,32.);
#48=VECTOR('',#373,19.7171431429143);
#49=VECTOR('',#376,7.85857157145715);
#50=VECTOR('',#377,26.8585715714572);
#51=VECTOR('',#378,32.);
#52=VECTOR('',#379,19.);
#53=VECTOR('',#382,6.);
#54=VECTOR('',#387,6.);
#55=CONICAL_SURFACE('',#292,5.,45.);
#56=PLANE('',#279);
#57=PLANE('',#283);
#58=PLANE('',#287);
#59=PLANE('',#291);
#60=PLANE('',#297);
#61=PLANE('',#301);
#62=PLANE('',#302);
#63=PLANE('',#303);
#64=PLANE('',#304);
#65=PLANE('',#305);
#66=PLANE('',#306);
#67=FACE_BOUND('',#98,.T.);
#68=FACE_BOUND('',#101,.T.);
#69=FACE_BOUND('',#104,.T.);
#70=FACE_BOUND('',#106,.T.);
#71=FACE_BOUND('',#108,.T.);
#72=FACE_BOUND('',#110,.T.);
#73=FACE_BOUND('',#112,.T.);
#74=FACE_BOUND('',#114,.T.);
#75=FACE_BOUND('',#118,.T.);
#76=FACE_BOUND('',#120,.T.);
#77=FACE_BOUND('',#121,.T.);
#78=FACE_BOUND('',#122,.T.);
#79=FACE_OUTER_BOUND('',#97,.T.);
#80=FACE_OUTER_BOUND('',#99,.T.);
#81=FACE_OUTER_BOUND('',#100,.T.);
#82=FACE_OUTER_BOUND('',#102,.T.);
#83=FACE_OUTER_BOUND('',#103,.T.);
#84=FACE_OUTER_BOUND('',#105,.T.);
#85=FACE_OUTER_BOUND('',#107,.T.);
#86=FACE_OUTER_BOUND('',#109,.T.);
#87=FACE_OUTER_BOUND('',#111,.T.);
#88=FACE_OUTER_BOUND('',#113,.T.);
#89=FACE_OUTER_BOUND('',#115,.T.);
#90=FACE_OUTER_BOUND('',#116,.T.);
#91=FACE_OUTER_BOUND('',#117,.T.);
#92=FACE_OUTER_BOUND('',#119,.T.);
#93=FACE_OUTER_BOUND('',#123,.T.);
#94=FACE_OUTER_BOUND('',#124,.T.);
#95=FACE_OUTER_BOUND('',#125,.T.);
#96=FACE_OUTER_BOUND('',#126,.T.);
#97=EDGE_LOOP('',(#192));
#98=EDGE_LOOP('',(#193));
#99=EDGE_LOOP('',(#194));
#100=EDGE_LOOP('',(#195));
#101=EDGE_LOOP('',(#196));
#102=EDGE_LOOP('',(#197));
#103=EDGE_LOOP('',(#198));
#104=EDGE_LOOP('',(#199));
#105=EDGE_LOOP('',(#200));
#106=EDGE_LOOP('',(#201));
#107=EDGE_LOOP('',(#202));
#108=EDGE_LOOP('',(#203));
#109=EDGE_LOOP('',(#204));
#110=EDGE_LOOP('',(#205));
#111=EDGE_LOOP('',(#206));
#112=EDGE_LOOP('',(#207));
#113=EDGE_LOOP('',(#208));
#114=EDGE_LOOP('',(#209));
#115=EDGE_LOOP('',(#210,#211,#212,#213));
#116=EDGE_LOOP('',(#214,#215,#216,#217));
#117=EDGE_LOOP('',(#218,#219,#220,#221,#222,#223));
#118=EDGE_LOOP('',(#224));
#119=EDGE_LOOP('',(#225,#226,#227,#228,#229,#230));
#120=EDGE_LOOP('',(#231));
#121=EDGE_LOOP('',(#232));
#122=EDGE_LOOP('',(#233));
#123=EDGE_LOOP('',(#234,#235,#236,#237));
#124=EDGE_LOOP('',(#238,#239,#240,#241));
#125=EDGE_LOOP('',(#242,#243,#244,#245));
#126=EDGE_LOOP('',(#246,#247,#248,#249));
#127=CIRCLE('',#277,2.);
#128=CIRCLE('',#278,2.);
#129=CIRCLE('',#281,2.);
#130=CIRCLE('',#282,2.);
#131=CIRCLE('',#285,3.);
#132=CIRCLE('',#286,3.);
#133=CIRCLE('',#289,3.);
#134=CIRCLE('',#290,3.);
#135=CIRCLE('',#293,6.5);
#136=CIRCLE('',#294,3.5);
#137=CIRCLE('',#296,3.5);
#138=CIRCLE('',#299,7.25);
#139=CIRCLE('',#300,7.25);
#140=VERTEX_POINT('',#398);
#141=VERTEX_POINT('',#400);
#142=VERTEX_POINT('',#404);
#143=VERTEX_POINT('',#406);
#144=VERTEX_POINT('',#410);
#145=VERTEX_POINT('',#412);
#146=VERTEX_POINT('',#416);
#147=VERTEX_POINT('',#418);
#148=VERTEX_POINT('',#422);
#149=VERTEX_POINT('',#424);
#150=VERTEX_POINT('',#427);
#151=VERTEX_POINT('',#430);
#152=VERTEX_POINT('',#431);
#153=VERTEX_POINT('',#433);
#154=VERTEX_POINT('',#435);
#155=VERTEX_POINT('',#439);
#156=VERTEX_POINT('',#440);
#157=VERTEX_POINT('',#442);
#158=VERTEX_POINT('',#444);
#159=VERTEX_POINT('',#449);
#160=VERTEX_POINT('',#451);
#161=VERTEX_POINT('',#456);
#162=VERTEX_POINT('',#458);
#163=EDGE_CURVE('',#140,#140,#127,.T.);
#164=EDGE_CURVE('',#141,#141,#128,.T.);
#165=EDGE_CURVE('',#142,#142,#129,.T.);
#166=EDGE_CURVE('',#143,#143,#130,.T.);
#167=EDGE_CURVE('',#144,#144,#131,.T.);
#168=EDGE_CURVE('',#145,#145,#132,.T.);
#169=EDGE_CURVE('',#146,#146,#133,.T.);
#170=EDGE_CURVE('',#147,#147,#134,.T.);
#171=EDGE_CURVE('',#148,#148,#135,.T.);
#172=EDGE_CURVE('',#149,#149,#136,.T.);
#173=EDGE_CURVE('',#150,#150,#137,.T.);
#174=EDGE_CURVE('',#151,#152,#23,.T.);
#175=EDGE_CURVE('',#153,#151,#24,.T.);
#176=EDGE_CURVE('',#154,#153,#25,.T.);
#177=EDGE_CURVE('',#154,#152,#26,.T.);
#178=EDGE_CURVE('',#155,#156,#138,.T.);
#179=EDGE_CURVE('',#157,#156,#27,.T.);
#180=EDGE_CURVE('',#158,#157,#139,.T.);
#181=EDGE_CURVE('',#155,#158,#28,.T.);
#182=EDGE_CURVE('',#156,#154,#29,.T.);
#183=EDGE_CURVE('',#153,#159,#30,.T.);
#184=EDGE_CURVE('',#159,#160,#31,.T.);
#185=EDGE_CURVE('',#160,#157,#32,.T.);
#186=EDGE_CURVE('',#152,#155,#33,.T.);
#187=EDGE_CURVE('',#158,#161,#34,.T.);
#188=EDGE_CURVE('',#161,#162,#35,.T.);
#189=EDGE_CURVE('',#162,#151,#36,.T.);
#190=EDGE_CURVE('',#161,#160,#37,.T.);
#191=EDGE_CURVE('',#162,#159,#38,.T.);
#192=ORIENTED_EDGE('',*,*,#163,.F.);
#193=ORIENTED_EDGE('',*,*,#164,.F.);
#194=ORIENTED_EDGE('',*,*,#164,.T.);
#195=ORIENTED_EDGE('',*,*,#165,.F.);
#196=ORIENTED_EDGE('',*,*,#166,.F.);
#197=ORIENTED_EDGE('',*,*,#166,.T.);
#198=ORIENTED_EDGE('',*,*,#167,.F.);
#199=ORIENTED_EDGE('',*,*,#168,.F.);
#200=ORIENTED_EDGE('',*,*,#167,.T.);
#201=ORIENTED_EDGE('',*,*,#163,.T.);
#202=ORIENTED_EDGE('',*,*,#169,.F.);
#203=ORIENTED_EDGE('',*,*,#170,.F.);
#204=ORIENTED_EDGE('',*,*,#169,.T.);
#205=ORIENTED_EDGE('',*,*,#165,.T.);
#206=ORIENTED_EDGE('',*,*,#171,.F.);
#207=ORIENTED_EDGE('',*,*,#172,.F.);
#208=ORIENTED_EDGE('',*,*,#173,.F.);
#209=ORIENTED_EDGE('',*,*,#172,.T.);
#210=ORIENTED_EDGE('',*,*,#174,.F.);
#211=ORIENTED_EDGE('',*,*,#175,.F.);
#212=ORIENTED_EDGE('',*,*,#176,.F.);
#213=ORIENTED_EDGE('',*,*,#177,.T.);
#214=ORIENTED_EDGE('',*,*,#178,.T.);
#215=ORIENTED_EDGE('',*,*,#179,.F.);
#216=ORIENTED_EDGE('',*,*,#180,.F.);
#217=ORIENTED_EDGE('',*,*,#181,.F.);
#218=ORIENTED_EDGE('',*,*,#182,.T.);
#219=ORIENTED_EDGE('',*,*,#176,.T.);
#220=ORIENTED_EDGE('',*,*,#183,.T.);
#221=ORIENTED_EDGE('',*,*,#184,.T.);
#222=ORIENTED_EDGE('',*,*,#185,.T.);
#223=ORIENTED_EDGE('',*,*,#179,.T.);
#224=ORIENTED_EDGE('',*,*,#171,.T.);
#225=ORIENTED_EDGE('',*,*,#186,.T.);
#226=ORIENTED_EDGE('',*,*,#181,.T.);
#227=ORIENTED_EDGE('',*,*,#187,.T.);
#228=ORIENTED_EDGE('',*,*,#188,.T.);
#229=ORIENTED_EDGE('',*,*,#189,.T.);
#230=ORIENTED_EDGE('',*,*,#174,.T.);
#231=ORIENTED_EDGE('',*,*,#168,.T.);
#232=ORIENTED_EDGE('',*,*,#170,.T.);
#233=ORIENTED_EDGE('',*,*,#173,.T.);
#234=ORIENTED_EDGE('',*,*,#180,.T.);
#235=ORIENTED_EDGE('',*,*,#185,.F.);
#236=ORIENTED_EDGE('',*,*,#190,.F.);
#237=ORIENTED_EDGE('',*,*,#187,.F.);
#238=ORIENTED_EDGE('',*,*,#178,.F.);
#239=ORIENTED_EDGE('',*,*,#186,.F.);
#240=ORIENTED_EDGE('',*,*,#177,.F.);
#241=ORIENTED_EDGE('',*,*,#182,.F.);
#242=ORIENTED_EDGE('',*,*,#188,.F.);
#243=ORIENTED_EDGE('',*,*,#190,.T.);
#244=ORIENTED_EDGE('',*,*,#184,.F.);
#245=ORIENTED_EDGE('',*,*,#191,.F.);
#246=ORIENTED_EDGE('',*,*,#175,.T.);
#247=ORIENTED_EDGE('',*,*,#189,.F.);
#248=ORIENTED_EDGE('',*,*,#191,.T.);
#249=ORIENTED_EDGE('',*,*,#183,.F.);
#250=CYLINDRICAL_SURFACE('',#276,2.);
#251=CYLINDRICAL_SURFACE('',#280,2.);
#252=CYLINDRICAL_SURFACE('',#284,3.);
#253=CYLINDRICAL_SURFACE('',#288,3.);
#254=CYLINDRICAL_SURFACE('',#295,3.5);
#255=CYLINDRICAL_SURFACE('',#298,7.25);
#256=ADVANCED_FACE('',(#79,#67),#250,.F.);
#257=ADVANCED_FACE('',(#80),#56,.T.);
#258=ADVANCED_FACE('',(#81,#68),#251,.F.);
#259=ADVANCED_FACE('',(#82),#57,.T.);
#260=ADVANCED_FACE('',(#83,#69),#252,.T.);
#261=ADVANCED_FACE('',(#84,#70),#58,.F.);
#262=ADVANCED_FACE('',(#85,#71),#253,.T.);
#263=ADVANCED_FACE('',(#86,#72),#59,.F.);
#264=ADVANCED_FACE('',(#87,#73),#55,.F.);
#265=ADVANCED_FACE('',(#88,#74),#254,.F.);
#266=ADVANCED_FACE('',(#89),#60,.F.);
#267=ADVANCED_FACE('',(#90),#255,.T.);
#268=ADVANCED_FACE('',(#91,#75),#61,.T.);
#269=ADVANCED_FACE('',(#92,#76,#77,#78),#62,.T.);
#270=ADVANCED_FACE('',(#93),#63,.T.);
#271=ADVANCED_FACE('',(#94),#64,.F.);
#272=ADVANCED_FACE('',(#95),#65,.T.);
#273=ADVANCED_FACE('',(#96),#66,.T.);
#274=CLOSED_SHELL('',(#256,#257,#258,#259,#260,#261,#262,#263,#264,#265,
#266,#267,#268,#269,#270,#271,#272,#273));
#275=AXIS2_PLACEMENT_3D('placement',#396,#310,#311);
#276=AXIS2_PLACEMENT_3D('',#397,#312,#313);
#277=AXIS2_PLACEMENT_3D('',#399,#314,#315);
#278=AXIS2_PLACEMENT_3D('',#401,#316,#317);
#279=AXIS2_PLACEMENT_3D('',#402,#318,#319);
#280=AXIS2_PLACEMENT_3D('',#403,#320,#321);
#281=AXIS2_PLACEMENT_3D('',#405,#322,#323);
#282=AXIS2_PLACEMENT_3D('',#407,#324,#325);
#283=AXIS2_PLACEMENT_3D('',#408,#326,#327);
#284=AXIS2_PLACEMENT_3D('',#409,#328,#329);
#285=AXIS2_PLACEMENT_3D('',#411,#330,#331);
#286=AXIS2_PLACEMENT_3D('',#413,#332,#333);
#287=AXIS2_PLACEMENT_3D('',#414,#334,#335);
#288=AXIS2_PLACEMENT_3D('',#415,#336,#337);
#289=AXIS2_PLACEMENT_3D('',#417,#338,#339);
#290=AXIS2_PLACEMENT_3D('',#419,#340,#341);
#291=AXIS2_PLACEMENT_3D('',#420,#342,#343);
#292=AXIS2_PLACEMENT_3D('',#421,#344,#345);
#293=AXIS2_PLACEMENT_3D('',#423,#346,#347);
#294=AXIS2_PLACEMENT_3D('',#425,#348,#349);
#295=AXIS2_PLACEMENT_3D('',#426,#350,#351);
#296=AXIS2_PLACEMENT_3D('',#428,#352,#353);
#297=AXIS2_PLACEMENT_3D('',#429,#354,#355);
#298=AXIS2_PLACEMENT_3D('',#438,#360,#361);
#299=AXIS2_PLACEMENT_3D('',#441,#362,#363);
#300=AXIS2_PLACEMENT_3D('',#445,#365,#366);
#301=AXIS2_PLACEMENT_3D('',#447,#368,#369);
#302=AXIS2_PLACEMENT_3D('',#454,#374,#375);
#303=AXIS2_PLACEMENT_3D('',#461,#380,#381);
#304=AXIS2_PLACEMENT_3D('',#463,#383,#384);
#305=AXIS2_PLACEMENT_3D('',#464,#385,#386);
#306=AXIS2_PLACEMENT_3D('',#466,#388,#389);
#307=AXIS2_PLACEMENT_3D('placement',#467,#390,#391);
#308=AXIS2_PLACEMENT_3D('',#468,#392,#393);
#309=AXIS2_PLACEMENT_3D('',#469,#394,#395);
#310=DIRECTION('axis',(0.,0.,1.));
#311=DIRECTION('refdir',(1.,0.,0.));
#312=DIRECTION('center_axis',(0.,-1.,0.));
#313=DIRECTION('ref_axis',(1.,0.,0.));
#314=DIRECTION('center_axis',(0.,1.,0.));
#315=DIRECTION('ref_axis',(1.,0.,0.));
#316=DIRECTION('center_axis',(0.,-1.,0.));
#317=DIRECTION('ref_axis',(1.,0.,0.));
#318=DIRECTION('center_axis',(0.,-1.,0.));
#319=DIRECTION('ref_axis',(1.,0.,0.));
#320=DIRECTION('center_axis',(0.,-1.,0.));
#321=DIRECTION('ref_axis',(1.,0.,0.));
#322=DIRECTION('center_axis',(0.,1.,0.));
#323=DIRECTION('ref_axis',(1.,0.,0.));
#324=DIRECTION('center_axis',(0.,-1.,0.));
#325=DIRECTION('ref_axis',(1.,0.,0.));
#326=DIRECTION('center_axis',(0.,-1.,0.));
#327=DIRECTION('ref_axis',(1.,0.,0.));
#328=DIRECTION('center_axis',(0.,-1.,0.));
#329=DIRECTION('ref_axis',(-1.,0.,0.));
#330=DIRECTION('center_axis',(0.,-1.,0.));
#331=DIRECTION('ref_axis',(-1.,0.,0.));
#332=DIRECTION('center_axis',(0.,1.,0.));
#333=DIRECTION('ref_axis',(-1.,0.,0.));
#334=DIRECTION('center_axis',(0.,1.,0.));
#335=DIRECTION('ref_axis',(0.,0.,1.));
#336=DIRECTION('center_axis',(0.,-1.,0.));
#337=DIRECTION('ref_axis',(-1.,0.,0.));
#338=DIRECTION('center_axis',(0.,-1.,0.));
#339=DIRECTION('ref_axis',(-1.,0.,0.));
#340=DIRECTION('center_axis',(0.,1.,0.));
#341=DIRECTION('ref_axis',(-1.,0.,0.));
#342=DIRECTION('center_axis',(0.,1.,0.));
#343=DIRECTION('ref_axis',(0.,0.,1.));
#344=DIRECTION('center_axis',(0.,1.,0.));
#345=DIRECTION('ref_axis',(1.,0.,0.));
#346=DIRECTION('center_axis',(0.,-1.,0.));
#347=DIRECTION('ref_axis',(1.,0.,0.));
#348=DIRECTION('center_axis',(0.,1.,0.));
#349=DIRECTION('ref_axis',(1.,0.,0.));
#350=DIRECTION('center_axis',(0.,1.,0.));
#351=DIRECTION('ref_axis',(1.,0.,0.));
#352=DIRECTION('center_axis',(0.,1.,0.));
#353=DIRECTION('ref_axis',(1.,0.,0.));
#354=DIRECTION('center_axis',(-1.,0.,3.37893964016352E-16));
#355=DIRECTION('ref_axis',(-3.33066907387547E-16,0.,-1.));
#356=DIRECTION('',(3.37893964016352E-16,0.,1.));
#357=DIRECTION('',(0.,-1.,0.));
#358=DIRECTION('',(-3.37893964016352E-16,0.,-1.));
#359=DIRECTION('',(0.,-1.,0.));
#360=DIRECTION('center_axis',(0.,0.,-1.));
#361=DIRECTION('ref_axis',(-1.,0.,0.));
#362=DIRECTION('center_axis',(2.11471052309554E-16,0.,1.));
#363=DIRECTION('ref_axis',(-1.,0.,0.));
#364=DIRECTION('',(0.,0.,-1.));
#365=DIRECTION('center_axis',(0.,0.,1.));
#366=DIRECTION('ref_axis',(-1.,0.,0.));
#367=DIRECTION('',(0.,0.,1.));
#368=DIRECTION('center_axis',(0.,1.,0.));
#369=DIRECTION('ref_axis',(0.,0.,1.));
#370=DIRECTION('',(-1.,0.,2.11471052309554E-16));
#371=DIRECTION('',(-1.,0.,-1.30614473485313E-16));
#372=DIRECTION('',(6.93889390390723E-17,0.,1.));
#373=DIRECTION('',(1.,0.,0.));
#374=DIRECTION('center_axis',(0.,-1.,0.));
#375=DIRECTION('ref_axis',(0.,0.,-1.));
#376=DIRECTION('',(1.,0.,-2.11471052309554E-16));
#377=DIRECTION('',(-1.,0.,0.));
#378=DIRECTION('',(-6.93889390390723E-17,0.,-1.));
#379=DIRECTION('',(1.,0.,1.30614473485313E-16));
#380=DIRECTION('center_axis',(0.,0.,1.));
#381=DIRECTION('ref_axis',(1.,0.,0.));
#382=DIRECTION('',(0.,1.,0.));
#383=DIRECTION('center_axis',(0.,0.,1.));
#384=DIRECTION('ref_axis',(1.,0.,0.));
#385=DIRECTION('center_axis',(-1.,0.,6.93889390390723E-17));
#386=DIRECTION('ref_axis',(0.,0.,1.));
#387=DIRECTION('',(0.,1.,0.));
#388=DIRECTION('center_axis',(1.30614473485313E-16,0.,-1.));
#389=DIRECTION('ref_axis',(-1.,0.,-1.77635683940025E-16));
#390=DIRECTION('axis',(0.,0.,1.));
#391=DIRECTION('refdir',(1.,0.,0.));
#392=DIRECTION('',(1.41112700122057E-17,1.2904386379534E-18,1.));
#393=DIRECTION('',(0.971676068471669,-0.236316774604428,-1.34066310698561E-17));
#394=DIRECTION('',(5.10684636715918E-18,-1.29043863795337E-18,-1.));
#395=DIRECTION('',(-0.84374984964969,0.536736612516909,-5.00152651767064E-18));
#396=CARTESIAN_POINT('',(0.,0.,0.));
#397=CARTESIAN_POINT('Origin',(-7.5,0.,11.5));
#398=CARTESIAN_POINT('',(-5.5,-4.,11.5));
#399=CARTESIAN_POINT('Origin',(-7.5,-4.,11.5));
#400=CARTESIAN_POINT('',(-5.5,4.,11.5));
#401=CARTESIAN_POINT('Origin',(-7.5,4.,11.5));
#402=CARTESIAN_POINT('Origin',(-7.5,4.,11.5));
#403=CARTESIAN_POINT('Origin',(-7.5,0.,-11.5));
#404=CARTESIAN_POINT('',(-5.5,-4.,-11.5));
#405=CARTESIAN_POINT('Origin',(-7.5,-4.,-11.5));
#406=CARTESIAN_POINT('',(-5.5,4.,-11.5));
#407=CARTESIAN_POINT('Origin',(-7.5,4.,-11.5));
#408=CARTESIAN_POINT('Origin',(-7.5,4.,-11.5));
#409=CARTESIAN_POINT('Origin',(-7.5,0.,11.5));
#410=CARTESIAN_POINT('',(-4.5,-4.,11.5));
#411=CARTESIAN_POINT('Origin',(-7.5,-4.,11.5));
#412=CARTESIAN_POINT('',(-4.5,0.,11.5));
#413=CARTESIAN_POINT('Origin',(-7.5,0.,11.5));
#414=CARTESIAN_POINT('Origin',(-7.5,-4.,11.5));
#415=CARTESIAN_POINT('Origin',(-7.5,0.,-11.5));
#416=CARTESIAN_POINT('',(-4.5,-4.,-11.5));
#417=CARTESIAN_POINT('Origin',(-7.5,-4.,-11.5));
#418=CARTESIAN_POINT('',(-4.5,0.,-11.5));
#419=CARTESIAN_POINT('Origin',(-7.5,0.,-11.5));
#420=CARTESIAN_POINT('Origin',(-7.5,-4.,-11.5));
#421=CARTESIAN_POINT('Origin',(-7.,4.5,0.));
#422=CARTESIAN_POINT('',(-0.500000000000003,6.,0.));
#423=CARTESIAN_POINT('Origin',(-7.,6.,0.));
#424=CARTESIAN_POINT('',(-3.5,3.,0.));
#425=CARTESIAN_POINT('Origin',(-7.,3.,0.));
#426=CARTESIAN_POINT('Origin',(-7.,-42.9657498119371,0.));
#427=CARTESIAN_POINT('',(-10.5,0.,4.28626379701574E-16));
#428=CARTESIAN_POINT('Origin',(-7.,0.,0.));
#429=CARTESIAN_POINT('Origin',(2.,6.,0.));
#430=CARTESIAN_POINT('',(1.99999999999999,0.,-16.));
#431=CARTESIAN_POINT('',(2.,0.,-4.93038065763132E-32));
#432=CARTESIAN_POINT('',(2.,0.,1.83574426337888E-16));
#433=CARTESIAN_POINT('',(1.99999999999999,6.,-16.));
#434=CARTESIAN_POINT('',(1.99999999999999,3.,-16.));
#435=CARTESIAN_POINT('',(2.,6.,-4.93038065763132E-32));
#436=CARTESIAN_POINT('',(2.,6.,-3.37893964016352E-16));
#437=CARTESIAN_POINT('',(2.,6.,-4.93038065763132E-32));
#438=CARTESIAN_POINT('Origin',(9.85857157145715,7.25,16.));
#439=CARTESIAN_POINT('',(9.85857157145715,0.,-2.22044604925031E-15));
#440=CARTESIAN_POINT('',(2.7171431429143,6.,0.));
#441=CARTESIAN_POINT('Origin',(9.85857157145715,7.25,-4.44089209850063E-15));
#442=CARTESIAN_POINT('',(2.7171431429143,6.,16.));
#443=CARTESIAN_POINT('',(2.7171431429143,6.,16.));
#444=CARTESIAN_POINT('',(9.85857157145715,0.,16.));
#445=CARTESIAN_POINT('Origin',(9.85857157145715,7.25,16.));
#446=CARTESIAN_POINT('',(9.85857157145715,0.,16.));
#447=CARTESIAN_POINT('Origin',(-2.22044604925031E-15,6.,0.));
#448=CARTESIAN_POINT('',(11.5,6.,-2.00897499694076E-15));
#449=CARTESIAN_POINT('',(-17.,6.,-16.));
#450=CARTESIAN_POINT('',(-17.,6.,-16.));
#451=CARTESIAN_POINT('',(-17.,6.,16.));
#452=CARTESIAN_POINT('',(-17.,6.,16.));
#453=CARTESIAN_POINT('',(17.,6.,16.));
#454=CARTESIAN_POINT('Origin',(-2.52323414687536E-15,0.,1.04293678070848E-15));
#455=CARTESIAN_POINT('',(11.5,0.,-2.00897499694076E-15));
#456=CARTESIAN_POINT('',(-17.,0.,16.));
#457=CARTESIAN_POINT('',(17.,0.,16.));
#458=CARTESIAN_POINT('',(-17.,0.,-16.));
#459=CARTESIAN_POINT('',(-17.,0.,16.));
#460=CARTESIAN_POINT('',(-17.,0.,-16.));
#461=CARTESIAN_POINT('Origin',(-17.,0.,16.));
#462=CARTESIAN_POINT('',(-17.,0.,16.));
#463=CARTESIAN_POINT('Origin',(9.85857157145715,7.25,-2.22044604925031E-15));
#464=CARTESIAN_POINT('Origin',(-17.,0.,-16.));
#465=CARTESIAN_POINT('',(-17.,0.,-16.));
#466=CARTESIAN_POINT('Origin',(17.,0.,-16.));
#467=CARTESIAN_POINT('',(0.,0.,0.));
#468=CARTESIAN_POINT('',(-1.19204440334698E-47,-1.65574581381253E-47,3.08531988999326E-80));
#469=CARTESIAN_POINT('',(15.7194625216121,-6.69373705903378,-1.00000000000001));
#470=UNCERTAINTY_MEASURE_WITH_UNIT(LENGTH_MEASURE(0.01),#476,
'DISTANCE_ACCURACY_VALUE',
'Maximum model space distance between geometric entities at asserted c
onnectivities');
#471=UNCERTAINTY_MEASURE_WITH_UNIT(LENGTH_MEASURE(0.01),#476,
'DISTANCE_ACCURACY_VALUE',
'Maximum model space distance between geometric entities at asserted c
onnectivities');
#472=UNCERTAINTY_MEASURE_WITH_UNIT(LENGTH_MEASURE(1.E-6),#476,
'DISTANCE_ACCURACY_VALUE',
'Maximum model space distance between geometric entities at asserted c
onnectivities');
#473=(
GEOMETRIC_REPRESENTATION_CONTEXT(3)
GLOBAL_UNCERTAINTY_ASSIGNED_CONTEXT((#470))
GLOBAL_UNIT_ASSIGNED_CONTEXT((#476,#479,#477))
REPRESENTATION_CONTEXT('','3D')
);
#474=(
GEOMETRIC_REPRESENTATION_CONTEXT(3)
GLOBAL_UNCERTAINTY_ASSIGNED_CONTEXT((#471))
GLOBAL_UNIT_ASSIGNED_CONTEXT((#476,#479,#477))
REPRESENTATION_CONTEXT('','3D')
);
#475=(
GEOMETRIC_REPRESENTATION_CONTEXT(3)
GLOBAL_UNCERTAINTY_ASSIGNED_CONTEXT((#472))
GLOBAL_UNIT_ASSIGNED_CONTEXT((#476,#479,#477))
REPRESENTATION_CONTEXT('','3D')
);
#476=(
LENGTH_UNIT()
NAMED_UNIT(*)
SI_UNIT(.MILLI.,.METRE.)
);
#477=(
NAMED_UNIT(*)
SI_UNIT($,.STERADIAN.)
SOLID_ANGLE_UNIT()
);
#478=DIMENSIONAL_EXPONENTS(0.,0.,0.,0.,0.,0.,0.);
#479=(
CONVERSION_BASED_UNIT('degree',#481)
NAMED_UNIT(#478)
PLANE_ANGLE_UNIT()
);
#480=(
NAMED_UNIT(*)
PLANE_ANGLE_UNIT()
SI_UNIT($,.RADIAN.)
);
#481=PLANE_ANGLE_MEASURE_WITH_UNIT(PLANE_ANGLE_MEASURE(0.01745329252),#480);
#482=SHAPE_DEFINITION_REPRESENTATION(#484,#488);
#483=SHAPE_DEFINITION_REPRESENTATION(#485,#489);
#484=PRODUCT_DEFINITION_SHAPE('',$,#491);
#485=PRODUCT_DEFINITION_SHAPE('',$,#492);
#486=PRODUCT_DEFINITION_SHAPE($,$,#17);
#487=PRODUCT_DEFINITION_SHAPE($,$,#18);
#488=SHAPE_REPRESENTATION('',(#275),#473);
#489=SHAPE_REPRESENTATION('',(#307,#308,#309),#474);
#490=PRODUCT_DEFINITION_CONTEXT('part definition',#498,'design');
#491=PRODUCT_DEFINITION('AH306','AH306',#493,#490);
#492=PRODUCT_DEFINITION('AH306','AH306',#494,#490);
#493=PRODUCT_DEFINITION_FORMATION('',$,#500);
#494=PRODUCT_DEFINITION_FORMATION('',$,#501);
#495=PRODUCT_RELATED_PRODUCT_CATEGORY('AH306','AH306',(#500));
#496=PRODUCT_RELATED_PRODUCT_CATEGORY('AH306','AH306',(#501));
#497=APPLICATION_PROTOCOL_DEFINITION('international standard',
'automotive_design',2009,#498);
#498=APPLICATION_CONTEXT(
'Core Data for Automotive Mechanical Design Process');
#499=PRODUCT_CONTEXT('part definition',#498,'mechanical');
#500=PRODUCT('AH306','AH306',$,(#499));
#501=PRODUCT('AH306','AH306',$,(#499));
#502=PRESENTATION_STYLE_ASSIGNMENT((#503));
#503=SURFACE_STYLE_USAGE(.BOTH.,#504);
#504=SURFACE_SIDE_STYLE($,(#505));
#505=SURFACE_STYLE_FILL_AREA(#506);
#506=FILL_AREA_STYLE($,(#507));
#507=FILL_AREA_STYLE_COLOUR($,#508);
#508=COLOUR_RGB('',0.749019607843137,0.749019607843137,0.749019607843137);
ENDSEC;
END-ISO-10303-21;
