ISO-10303-21;
HEADER;
/* Generated by software containing ST-Developer
 * from STEP Tools, Inc. (www.steptools.com) 
 */

FILE_DESCRIPTION(
/* description */ (''),
/* implementation_level */ '2;1');

FILE_NAME(
/* name */ 'D:\\\X2\96F64EF6\X0\\\M4\X2\7CFB5217\X0\\\\X2\914D4EF6\X0\\\
DCB2035-4.stp',
/* time_stamp */ '2025-03-24T11:51:19+08:00',
/* author */ ('1091212-1'),
/* organization */ (''),
/* preprocessor_version */ 'ST-DEVELOPER v15.6',
/* originating_system */ 'Autodesk Inventor 2015',
/* authorisation */ '');

FILE_SCHEMA (('AUTOMOTIVE_DESIGN { 1 0 10303 214 3 1 1 }'));
ENDSEC;

DATA;
#10=MECHANICAL_DESIGN_GEOMETRIC_PRESENTATION_REPRESENTATION('',(#13),#681);
#11=SHAPE_REPRESENTATION_RELATIONSHIP('SRR','None',#690,#12);
#12=ADVANCED_BREP_SHAPE_REPRESENTATION($,(#14),#680);
#13=STYLED_ITEM('',(#699),#14);
#14=MANIFOLD_SOLID_BREP('\X2\5BE69AD4\X0\1',#417);
#15=PLANE('',#425);
#16=PLANE('',#429);
#17=PLANE('',#433);
#18=PLANE('',#437);
#19=PLANE('',#441);
#20=PLANE('',#442);
#21=PLANE('',#443);
#22=PLANE('',#444);
#23=PLANE('',#445);
#24=PLANE('',#446);
#25=PLANE('',#447);
#26=PLANE('',#448);
#27=PLANE('',#449);
#28=PLANE('',#450);
#29=PLANE('',#451);
#30=PLANE('',#452);
#31=LINE('',#576,#73);
#32=LINE('',#579,#74);
#33=LINE('',#582,#75);
#34=LINE('',#584,#76);
#35=LINE('',#585,#77);
#36=LINE('',#591,#78);
#37=LINE('',#593,#79);
#38=LINE('',#594,#80);
#39=LINE('',#600,#81);
#40=LINE('',#603,#82);
#41=LINE('',#606,#83);
#42=LINE('',#608,#84);
#43=LINE('',#609,#85);
#44=LINE('',#615,#86);
#45=LINE('',#617,#87);
#46=LINE('',#618,#88);
#47=LINE('',#627,#89);
#48=LINE('',#629,#90);
#49=LINE('',#630,#91);
#50=LINE('',#633,#92);
#51=LINE('',#635,#93);
#52=LINE('',#636,#94);
#53=LINE('',#639,#95);
#54=LINE('',#640,#96);
#55=LINE('',#642,#97);
#56=LINE('',#645,#98);
#57=LINE('',#647,#99);
#58=LINE('',#648,#100);
#59=LINE('',#651,#101);
#60=LINE('',#653,#102);
#61=LINE('',#654,#103);
#62=LINE('',#658,#104);
#63=LINE('',#659,#105);
#64=LINE('',#661,#106);
#65=LINE('',#662,#107);
#66=LINE('',#665,#108);
#67=LINE('',#666,#109);
#68=LINE('',#669,#110);
#69=LINE('',#670,#111);
#70=LINE('',#673,#112);
#71=LINE('',#674,#113);
#72=LINE('',#676,#114);
#73=VECTOR('',#465,3.);
#74=VECTOR('',#468,3.);
#75=VECTOR('',#471,3.);
#76=VECTOR('',#472,3.);
#77=VECTOR('',#473,3.);
#78=VECTOR('',#480,3.);
#79=VECTOR('',#483,3.);
#80=VECTOR('',#484,3.);
#81=VECTOR('',#489,3.);
#82=VECTOR('',#492,3.);
#83=VECTOR('',#495,3.);
#84=VECTOR('',#496,3.);
#85=VECTOR('',#497,3.);
#86=VECTOR('',#504,3.);
#87=VECTOR('',#507,3.);
#88=VECTOR('',#508,3.);
#89=VECTOR('',#517,24.0416305603426);
#90=VECTOR('',#518,17.);
#91=VECTOR('',#519,17.);
#92=VECTOR('',#522,29.);
#93=VECTOR('',#523,29.);
#94=VECTOR('',#524,17.);
#95=VECTOR('',#527,24.0416305603426);
#96=VECTOR('',#528,17.);
#97=VECTOR('',#531,29.);
#98=VECTOR('',#534,3.);
#99=VECTOR('',#535,24.0416305603426);
#100=VECTOR('',#536,3.);
#101=VECTOR('',#539,3.);
#102=VECTOR('',#540,24.0416305603426);
#103=VECTOR('',#541,3.);
#104=VECTOR('',#544,20.);
#105=VECTOR('',#545,3.);
#106=VECTOR('',#546,3.);
#107=VECTOR('',#547,20.);
#108=VECTOR('',#550,35.);
#109=VECTOR('',#551,3.);
#110=VECTOR('',#554,3.);
#111=VECTOR('',#555,35.);
#112=VECTOR('',#558,20.);
#113=VECTOR('',#559,35.);
#114=VECTOR('',#562,20.);
#115=FACE_BOUND('',#148,.T.);
#116=FACE_BOUND('',#158,.T.);
#117=FACE_BOUND('',#161,.T.);
#118=FACE_BOUND('',#162,.T.);
#119=FACE_BOUND('',#165,.T.);
#120=FACE_BOUND('',#166,.T.);
#121=FACE_BOUND('',#173,.T.);
#122=FACE_BOUND('',#174,.T.);
#123=FACE_BOUND('',#176,.T.);
#124=FACE_BOUND('',#177,.T.);
#125=FACE_OUTER_BOUND('',#147,.T.);
#126=FACE_OUTER_BOUND('',#149,.T.);
#127=FACE_OUTER_BOUND('',#150,.T.);
#128=FACE_OUTER_BOUND('',#151,.T.);
#129=FACE_OUTER_BOUND('',#152,.T.);
#130=FACE_OUTER_BOUND('',#153,.T.);
#131=FACE_OUTER_BOUND('',#154,.T.);
#132=FACE_OUTER_BOUND('',#155,.T.);
#133=FACE_OUTER_BOUND('',#156,.T.);
#134=FACE_OUTER_BOUND('',#157,.T.);
#135=FACE_OUTER_BOUND('',#159,.T.);
#136=FACE_OUTER_BOUND('',#160,.T.);
#137=FACE_OUTER_BOUND('',#163,.T.);
#138=FACE_OUTER_BOUND('',#164,.T.);
#139=FACE_OUTER_BOUND('',#167,.T.);
#140=FACE_OUTER_BOUND('',#168,.T.);
#141=FACE_OUTER_BOUND('',#169,.T.);
#142=FACE_OUTER_BOUND('',#170,.T.);
#143=FACE_OUTER_BOUND('',#171,.T.);
#144=FACE_OUTER_BOUND('',#172,.T.);
#145=FACE_OUTER_BOUND('',#175,.T.);
#146=FACE_OUTER_BOUND('',#178,.T.);
#147=EDGE_LOOP('',(#281));
#148=EDGE_LOOP('',(#282));
#149=EDGE_LOOP('',(#283,#284,#285,#286));
#150=EDGE_LOOP('',(#287,#288,#289,#290));
#151=EDGE_LOOP('',(#291,#292,#293,#294));
#152=EDGE_LOOP('',(#295,#296,#297,#298));
#153=EDGE_LOOP('',(#299,#300,#301,#302));
#154=EDGE_LOOP('',(#303,#304,#305,#306));
#155=EDGE_LOOP('',(#307,#308,#309,#310));
#156=EDGE_LOOP('',(#311,#312,#313,#314));
#157=EDGE_LOOP('',(#315));
#158=EDGE_LOOP('',(#316));
#159=EDGE_LOOP('',(#317,#318,#319));
#160=EDGE_LOOP('',(#320,#321,#322,#323));
#161=EDGE_LOOP('',(#324,#325,#326,#327));
#162=EDGE_LOOP('',(#328,#329,#330,#331));
#163=EDGE_LOOP('',(#332,#333,#334));
#164=EDGE_LOOP('',(#335,#336,#337,#338));
#165=EDGE_LOOP('',(#339));
#166=EDGE_LOOP('',(#340));
#167=EDGE_LOOP('',(#341,#342,#343,#344));
#168=EDGE_LOOP('',(#345,#346,#347,#348));
#169=EDGE_LOOP('',(#349,#350,#351,#352,#353));
#170=EDGE_LOOP('',(#354,#355,#356,#357,#358,#359));
#171=EDGE_LOOP('',(#360,#361,#362,#363,#364,#365));
#172=EDGE_LOOP('',(#366,#367,#368,#369));
#173=EDGE_LOOP('',(#370));
#174=EDGE_LOOP('',(#371));
#175=EDGE_LOOP('',(#372,#373,#374,#375));
#176=EDGE_LOOP('',(#376,#377,#378,#379));
#177=EDGE_LOOP('',(#380,#381,#382,#383));
#178=EDGE_LOOP('',(#384,#385,#386,#387,#388));
#179=CIRCLE('',#420,2.25);
#180=CIRCLE('',#421,2.25);
#181=CIRCLE('',#423,2.25);
#182=CIRCLE('',#424,2.25);
#183=CIRCLE('',#427,2.25);
#184=CIRCLE('',#428,2.25);
#185=CIRCLE('',#431,2.25);
#186=CIRCLE('',#432,2.25);
#187=CIRCLE('',#435,2.25);
#188=CIRCLE('',#436,2.25);
#189=CIRCLE('',#439,2.25);
#190=CIRCLE('',#440,2.25);
#191=VERTEX_POINT('',#567);
#192=VERTEX_POINT('',#569);
#193=VERTEX_POINT('',#572);
#194=VERTEX_POINT('',#573);
#195=VERTEX_POINT('',#575);
#196=VERTEX_POINT('',#577);
#197=VERTEX_POINT('',#581);
#198=VERTEX_POINT('',#583);
#199=VERTEX_POINT('',#587);
#200=VERTEX_POINT('',#589);
#201=VERTEX_POINT('',#596);
#202=VERTEX_POINT('',#597);
#203=VERTEX_POINT('',#599);
#204=VERTEX_POINT('',#601);
#205=VERTEX_POINT('',#605);
#206=VERTEX_POINT('',#607);
#207=VERTEX_POINT('',#611);
#208=VERTEX_POINT('',#613);
#209=VERTEX_POINT('',#620);
#210=VERTEX_POINT('',#622);
#211=VERTEX_POINT('',#625);
#212=VERTEX_POINT('',#626);
#213=VERTEX_POINT('',#628);
#214=VERTEX_POINT('',#632);
#215=VERTEX_POINT('',#634);
#216=VERTEX_POINT('',#638);
#217=VERTEX_POINT('',#644);
#218=VERTEX_POINT('',#646);
#219=VERTEX_POINT('',#650);
#220=VERTEX_POINT('',#652);
#221=VERTEX_POINT('',#656);
#222=VERTEX_POINT('',#657);
#223=VERTEX_POINT('',#660);
#224=VERTEX_POINT('',#664);
#225=VERTEX_POINT('',#668);
#226=VERTEX_POINT('',#672);
#227=EDGE_CURVE('',#191,#191,#179,.T.);
#228=EDGE_CURVE('',#192,#192,#180,.T.);
#229=EDGE_CURVE('',#193,#194,#181,.T.);
#230=EDGE_CURVE('',#195,#193,#31,.T.);
#231=EDGE_CURVE('',#196,#195,#182,.T.);
#232=EDGE_CURVE('',#196,#194,#32,.T.);
#233=EDGE_CURVE('',#194,#197,#33,.T.);
#234=EDGE_CURVE('',#198,#196,#34,.T.);
#235=EDGE_CURVE('',#198,#197,#35,.T.);
#236=EDGE_CURVE('',#197,#199,#183,.T.);
#237=EDGE_CURVE('',#200,#198,#184,.T.);
#238=EDGE_CURVE('',#200,#199,#36,.T.);
#239=EDGE_CURVE('',#199,#193,#37,.T.);
#240=EDGE_CURVE('',#195,#200,#38,.T.);
#241=EDGE_CURVE('',#201,#202,#185,.T.);
#242=EDGE_CURVE('',#203,#201,#39,.T.);
#243=EDGE_CURVE('',#204,#203,#186,.T.);
#244=EDGE_CURVE('',#204,#202,#40,.T.);
#245=EDGE_CURVE('',#202,#205,#41,.T.);
#246=EDGE_CURVE('',#206,#204,#42,.T.);
#247=EDGE_CURVE('',#206,#205,#43,.T.);
#248=EDGE_CURVE('',#205,#207,#187,.T.);
#249=EDGE_CURVE('',#208,#206,#188,.T.);
#250=EDGE_CURVE('',#208,#207,#44,.T.);
#251=EDGE_CURVE('',#207,#201,#45,.T.);
#252=EDGE_CURVE('',#203,#208,#46,.T.);
#253=EDGE_CURVE('',#209,#209,#189,.T.);
#254=EDGE_CURVE('',#210,#210,#190,.T.);
#255=EDGE_CURVE('',#211,#212,#47,.T.);
#256=EDGE_CURVE('',#213,#211,#48,.T.);
#257=EDGE_CURVE('',#212,#213,#49,.T.);
#258=EDGE_CURVE('',#212,#214,#50,.T.);
#259=EDGE_CURVE('',#213,#215,#51,.T.);
#260=EDGE_CURVE('',#215,#214,#52,.T.);
#261=EDGE_CURVE('',#214,#216,#53,.T.);
#262=EDGE_CURVE('',#216,#215,#54,.T.);
#263=EDGE_CURVE('',#211,#216,#55,.T.);
#264=EDGE_CURVE('',#216,#217,#56,.T.);
#265=EDGE_CURVE('',#218,#217,#57,.T.);
#266=EDGE_CURVE('',#214,#218,#58,.T.);
#267=EDGE_CURVE('',#219,#212,#59,.T.);
#268=EDGE_CURVE('',#220,#219,#60,.T.);
#269=EDGE_CURVE('',#220,#211,#61,.T.);
#270=EDGE_CURVE('',#221,#222,#62,.T.);
#271=EDGE_CURVE('',#222,#218,#63,.T.);
#272=EDGE_CURVE('',#217,#223,#64,.T.);
#273=EDGE_CURVE('',#223,#221,#65,.T.);
#274=EDGE_CURVE('',#224,#222,#66,.T.);
#275=EDGE_CURVE('',#219,#224,#67,.T.);
#276=EDGE_CURVE('',#225,#220,#68,.T.);
#277=EDGE_CURVE('',#225,#223,#69,.T.);
#278=EDGE_CURVE('',#226,#225,#70,.T.);
#279=EDGE_CURVE('',#221,#226,#71,.T.);
#280=EDGE_CURVE('',#224,#226,#72,.T.);
#281=ORIENTED_EDGE('',*,*,#227,.F.);
#282=ORIENTED_EDGE('',*,*,#228,.F.);
#283=ORIENTED_EDGE('',*,*,#229,.F.);
#284=ORIENTED_EDGE('',*,*,#230,.F.);
#285=ORIENTED_EDGE('',*,*,#231,.F.);
#286=ORIENTED_EDGE('',*,*,#232,.T.);
#287=ORIENTED_EDGE('',*,*,#233,.F.);
#288=ORIENTED_EDGE('',*,*,#232,.F.);
#289=ORIENTED_EDGE('',*,*,#234,.F.);
#290=ORIENTED_EDGE('',*,*,#235,.T.);
#291=ORIENTED_EDGE('',*,*,#236,.F.);
#292=ORIENTED_EDGE('',*,*,#235,.F.);
#293=ORIENTED_EDGE('',*,*,#237,.F.);
#294=ORIENTED_EDGE('',*,*,#238,.T.);
#295=ORIENTED_EDGE('',*,*,#239,.F.);
#296=ORIENTED_EDGE('',*,*,#238,.F.);
#297=ORIENTED_EDGE('',*,*,#240,.F.);
#298=ORIENTED_EDGE('',*,*,#230,.T.);
#299=ORIENTED_EDGE('',*,*,#241,.F.);
#300=ORIENTED_EDGE('',*,*,#242,.F.);
#301=ORIENTED_EDGE('',*,*,#243,.F.);
#302=ORIENTED_EDGE('',*,*,#244,.T.);
#303=ORIENTED_EDGE('',*,*,#245,.F.);
#304=ORIENTED_EDGE('',*,*,#244,.F.);
#305=ORIENTED_EDGE('',*,*,#246,.F.);
#306=ORIENTED_EDGE('',*,*,#247,.T.);
#307=ORIENTED_EDGE('',*,*,#248,.F.);
#308=ORIENTED_EDGE('',*,*,#247,.F.);
#309=ORIENTED_EDGE('',*,*,#249,.F.);
#310=ORIENTED_EDGE('',*,*,#250,.T.);
#311=ORIENTED_EDGE('',*,*,#251,.F.);
#312=ORIENTED_EDGE('',*,*,#250,.F.);
#313=ORIENTED_EDGE('',*,*,#252,.F.);
#314=ORIENTED_EDGE('',*,*,#242,.T.);
#315=ORIENTED_EDGE('',*,*,#253,.F.);
#316=ORIENTED_EDGE('',*,*,#254,.F.);
#317=ORIENTED_EDGE('',*,*,#255,.F.);
#318=ORIENTED_EDGE('',*,*,#256,.F.);
#319=ORIENTED_EDGE('',*,*,#257,.F.);
#320=ORIENTED_EDGE('',*,*,#258,.F.);
#321=ORIENTED_EDGE('',*,*,#257,.T.);
#322=ORIENTED_EDGE('',*,*,#259,.T.);
#323=ORIENTED_EDGE('',*,*,#260,.T.);
#324=ORIENTED_EDGE('',*,*,#237,.T.);
#325=ORIENTED_EDGE('',*,*,#234,.T.);
#326=ORIENTED_EDGE('',*,*,#231,.T.);
#327=ORIENTED_EDGE('',*,*,#240,.T.);
#328=ORIENTED_EDGE('',*,*,#249,.T.);
#329=ORIENTED_EDGE('',*,*,#246,.T.);
#330=ORIENTED_EDGE('',*,*,#243,.T.);
#331=ORIENTED_EDGE('',*,*,#252,.T.);
#332=ORIENTED_EDGE('',*,*,#261,.F.);
#333=ORIENTED_EDGE('',*,*,#260,.F.);
#334=ORIENTED_EDGE('',*,*,#262,.F.);
#335=ORIENTED_EDGE('',*,*,#263,.T.);
#336=ORIENTED_EDGE('',*,*,#262,.T.);
#337=ORIENTED_EDGE('',*,*,#259,.F.);
#338=ORIENTED_EDGE('',*,*,#256,.T.);
#339=ORIENTED_EDGE('',*,*,#228,.T.);
#340=ORIENTED_EDGE('',*,*,#254,.T.);
#341=ORIENTED_EDGE('',*,*,#261,.T.);
#342=ORIENTED_EDGE('',*,*,#264,.T.);
#343=ORIENTED_EDGE('',*,*,#265,.F.);
#344=ORIENTED_EDGE('',*,*,#266,.F.);
#345=ORIENTED_EDGE('',*,*,#255,.T.);
#346=ORIENTED_EDGE('',*,*,#267,.F.);
#347=ORIENTED_EDGE('',*,*,#268,.F.);
#348=ORIENTED_EDGE('',*,*,#269,.T.);
#349=ORIENTED_EDGE('',*,*,#270,.T.);
#350=ORIENTED_EDGE('',*,*,#271,.T.);
#351=ORIENTED_EDGE('',*,*,#265,.T.);
#352=ORIENTED_EDGE('',*,*,#272,.T.);
#353=ORIENTED_EDGE('',*,*,#273,.T.);
#354=ORIENTED_EDGE('',*,*,#274,.F.);
#355=ORIENTED_EDGE('',*,*,#275,.F.);
#356=ORIENTED_EDGE('',*,*,#267,.T.);
#357=ORIENTED_EDGE('',*,*,#258,.T.);
#358=ORIENTED_EDGE('',*,*,#266,.T.);
#359=ORIENTED_EDGE('',*,*,#271,.F.);
#360=ORIENTED_EDGE('',*,*,#269,.F.);
#361=ORIENTED_EDGE('',*,*,#276,.F.);
#362=ORIENTED_EDGE('',*,*,#277,.T.);
#363=ORIENTED_EDGE('',*,*,#272,.F.);
#364=ORIENTED_EDGE('',*,*,#264,.F.);
#365=ORIENTED_EDGE('',*,*,#263,.F.);
#366=ORIENTED_EDGE('',*,*,#277,.F.);
#367=ORIENTED_EDGE('',*,*,#278,.F.);
#368=ORIENTED_EDGE('',*,*,#279,.F.);
#369=ORIENTED_EDGE('',*,*,#273,.F.);
#370=ORIENTED_EDGE('',*,*,#227,.T.);
#371=ORIENTED_EDGE('',*,*,#253,.T.);
#372=ORIENTED_EDGE('',*,*,#279,.T.);
#373=ORIENTED_EDGE('',*,*,#280,.F.);
#374=ORIENTED_EDGE('',*,*,#274,.T.);
#375=ORIENTED_EDGE('',*,*,#270,.F.);
#376=ORIENTED_EDGE('',*,*,#236,.T.);
#377=ORIENTED_EDGE('',*,*,#239,.T.);
#378=ORIENTED_EDGE('',*,*,#229,.T.);
#379=ORIENTED_EDGE('',*,*,#233,.T.);
#380=ORIENTED_EDGE('',*,*,#248,.T.);
#381=ORIENTED_EDGE('',*,*,#251,.T.);
#382=ORIENTED_EDGE('',*,*,#241,.T.);
#383=ORIENTED_EDGE('',*,*,#245,.T.);
#384=ORIENTED_EDGE('',*,*,#280,.T.);
#385=ORIENTED_EDGE('',*,*,#278,.T.);
#386=ORIENTED_EDGE('',*,*,#276,.T.);
#387=ORIENTED_EDGE('',*,*,#268,.T.);
#388=ORIENTED_EDGE('',*,*,#275,.T.);
#389=CYLINDRICAL_SURFACE('',#419,2.25);
#390=CYLINDRICAL_SURFACE('',#422,2.25);
#391=CYLINDRICAL_SURFACE('',#426,2.25);
#392=CYLINDRICAL_SURFACE('',#430,2.25);
#393=CYLINDRICAL_SURFACE('',#434,2.25);
#394=CYLINDRICAL_SURFACE('',#438,2.25);
#395=ADVANCED_FACE('',(#125,#115),#389,.F.);
#396=ADVANCED_FACE('',(#126),#390,.F.);
#397=ADVANCED_FACE('',(#127),#15,.T.);
#398=ADVANCED_FACE('',(#128),#391,.F.);
#399=ADVANCED_FACE('',(#129),#16,.T.);
#400=ADVANCED_FACE('',(#130),#392,.F.);
#401=ADVANCED_FACE('',(#131),#17,.F.);
#402=ADVANCED_FACE('',(#132),#393,.F.);
#403=ADVANCED_FACE('',(#133),#18,.F.);
#404=ADVANCED_FACE('',(#134,#116),#394,.F.);
#405=ADVANCED_FACE('',(#135),#19,.F.);
#406=ADVANCED_FACE('',(#136,#117,#118),#20,.F.);
#407=ADVANCED_FACE('',(#137),#21,.F.);
#408=ADVANCED_FACE('',(#138,#119,#120),#22,.F.);
#409=ADVANCED_FACE('',(#139),#23,.T.);
#410=ADVANCED_FACE('',(#140),#24,.T.);
#411=ADVANCED_FACE('',(#141),#25,.T.);
#412=ADVANCED_FACE('',(#142),#26,.T.);
#413=ADVANCED_FACE('',(#143),#27,.T.);
#414=ADVANCED_FACE('',(#144,#121,#122),#28,.T.);
#415=ADVANCED_FACE('',(#145,#123,#124),#29,.T.);
#416=ADVANCED_FACE('',(#146),#30,.T.);
#417=CLOSED_SHELL('',(#395,#396,#397,#398,#399,#400,#401,#402,#403,#404,
#405,#406,#407,#408,#409,#410,#411,#412,#413,#414,#415,#416));
#418=AXIS2_PLACEMENT_3D('placement',#565,#453,#454);
#419=AXIS2_PLACEMENT_3D('',#566,#455,#456);
#420=AXIS2_PLACEMENT_3D('',#568,#457,#458);
#421=AXIS2_PLACEMENT_3D('',#570,#459,#460);
#422=AXIS2_PLACEMENT_3D('',#571,#461,#462);
#423=AXIS2_PLACEMENT_3D('',#574,#463,#464);
#424=AXIS2_PLACEMENT_3D('',#578,#466,#467);
#425=AXIS2_PLACEMENT_3D('',#580,#469,#470);
#426=AXIS2_PLACEMENT_3D('',#586,#474,#475);
#427=AXIS2_PLACEMENT_3D('',#588,#476,#477);
#428=AXIS2_PLACEMENT_3D('',#590,#478,#479);
#429=AXIS2_PLACEMENT_3D('',#592,#481,#482);
#430=AXIS2_PLACEMENT_3D('',#595,#485,#486);
#431=AXIS2_PLACEMENT_3D('',#598,#487,#488);
#432=AXIS2_PLACEMENT_3D('',#602,#490,#491);
#433=AXIS2_PLACEMENT_3D('',#604,#493,#494);
#434=AXIS2_PLACEMENT_3D('',#610,#498,#499);
#435=AXIS2_PLACEMENT_3D('',#612,#500,#501);
#436=AXIS2_PLACEMENT_3D('',#614,#502,#503);
#437=AXIS2_PLACEMENT_3D('',#616,#505,#506);
#438=AXIS2_PLACEMENT_3D('',#619,#509,#510);
#439=AXIS2_PLACEMENT_3D('',#621,#511,#512);
#440=AXIS2_PLACEMENT_3D('',#623,#513,#514);
#441=AXIS2_PLACEMENT_3D('',#624,#515,#516);
#442=AXIS2_PLACEMENT_3D('',#631,#520,#521);
#443=AXIS2_PLACEMENT_3D('',#637,#525,#526);
#444=AXIS2_PLACEMENT_3D('',#641,#529,#530);
#445=AXIS2_PLACEMENT_3D('',#643,#532,#533);
#446=AXIS2_PLACEMENT_3D('',#649,#537,#538);
#447=AXIS2_PLACEMENT_3D('',#655,#542,#543);
#448=AXIS2_PLACEMENT_3D('',#663,#548,#549);
#449=AXIS2_PLACEMENT_3D('',#667,#552,#553);
#450=AXIS2_PLACEMENT_3D('',#671,#556,#557);
#451=AXIS2_PLACEMENT_3D('',#675,#560,#561);
#452=AXIS2_PLACEMENT_3D('',#677,#563,#564);
#453=DIRECTION('axis',(0.,0.,1.));
#454=DIRECTION('refdir',(1.,0.,0.));
#455=DIRECTION('center_axis',(-1.70803542250024E-16,1.,0.));
#456=DIRECTION('ref_axis',(-1.,-1.70803542250024E-16,0.));
#457=DIRECTION('center_axis',(-1.83697019872103E-16,1.,0.));
#458=DIRECTION('ref_axis',(-1.,-1.70803542250024E-16,0.));
#459=DIRECTION('center_axis',(1.77635683940025E-16,-1.,0.));
#460=DIRECTION('ref_axis',(-1.,-1.70803542250024E-16,0.));
#461=DIRECTION('center_axis',(1.,1.70803542250024E-16,0.));
#462=DIRECTION('ref_axis',(1.68560022483122E-31,-9.86864910777917E-16,1.));
#463=DIRECTION('center_axis',(1.,0.,0.));
#464=DIRECTION('ref_axis',(1.68560022483122E-31,-9.86864910777917E-16,1.));
#465=DIRECTION('',(-1.,-1.70803542250024E-16,0.));
#466=DIRECTION('center_axis',(-1.,-1.05735526154777E-16,0.));
#467=DIRECTION('ref_axis',(1.68560022483122E-31,-9.86864910777917E-16,1.));
#468=DIRECTION('',(-1.,-1.70803542250024E-16,0.));
#469=DIRECTION('center_axis',(-1.26420016862342E-31,7.40148683083438E-16,
-1.));
#470=DIRECTION('ref_axis',(8.88178419700125E-17,-1.,-7.105427357601E-16));
#471=DIRECTION('',(0.,-1.,-7.40148683083438E-16));
#472=DIRECTION('',(-1.05735526154777E-16,1.,7.40148683083438E-16));
#473=DIRECTION('',(-1.,-1.70803542250024E-16,0.));
#474=DIRECTION('center_axis',(1.,1.70803542250024E-16,0.));
#475=DIRECTION('ref_axis',(-1.68560022483122E-31,9.86864910777917E-16,-1.));
#476=DIRECTION('center_axis',(1.,0.,0.));
#477=DIRECTION('ref_axis',(-1.68560022483122E-31,9.86864910777917E-16,-1.));
#478=DIRECTION('center_axis',(-1.,-1.05735526154777E-16,0.));
#479=DIRECTION('ref_axis',(-1.68560022483122E-31,9.86864910777917E-16,-1.));
#480=DIRECTION('',(-1.,-1.70803542250024E-16,0.));
#481=DIRECTION('center_axis',(1.26420016862342E-31,-7.40148683083438E-16,
1.));
#482=DIRECTION('ref_axis',(-8.88178419700125E-17,1.,7.105427357601E-16));
#483=DIRECTION('',(0.,1.,7.40148683083438E-16));
#484=DIRECTION('',(1.05735526154777E-16,-1.,-7.40148683083438E-16));
#485=DIRECTION('center_axis',(-1.,-1.70803542250024E-16,0.));
#486=DIRECTION('ref_axis',(1.68560022483122E-31,-9.86864910777917E-16,-1.));
#487=DIRECTION('center_axis',(1.,0.,0.));
#488=DIRECTION('ref_axis',(1.68560022483122E-31,-9.86864910777917E-16,-1.));
#489=DIRECTION('',(-1.,-1.70803542250024E-16,0.));
#490=DIRECTION('center_axis',(-1.,-1.05735526154777E-16,0.));
#491=DIRECTION('ref_axis',(1.68560022483122E-31,-9.86864910777917E-16,-1.));
#492=DIRECTION('',(-1.,-1.70803542250024E-16,0.));
#493=DIRECTION('center_axis',(-1.26420016862342E-31,7.40148683083438E-16,
1.));
#494=DIRECTION('ref_axis',(-8.88178419700125E-17,1.,-7.105427357601E-16));
#495=DIRECTION('',(0.,-1.,7.40148683083438E-16));
#496=DIRECTION('',(-1.05735526154777E-16,1.,-7.40148683083438E-16));
#497=DIRECTION('',(-1.,-1.70803542250024E-16,0.));
#498=DIRECTION('center_axis',(-1.,-1.70803542250024E-16,0.));
#499=DIRECTION('ref_axis',(-1.68560022483122E-31,9.86864910777917E-16,1.));
#500=DIRECTION('center_axis',(1.,0.,0.));
#501=DIRECTION('ref_axis',(-1.68560022483122E-31,9.86864910777917E-16,1.));
#502=DIRECTION('center_axis',(-1.,-1.05735526154777E-16,0.));
#503=DIRECTION('ref_axis',(-1.68560022483122E-31,9.86864910777917E-16,1.));
#504=DIRECTION('',(-1.,-1.70803542250024E-16,0.));
#505=DIRECTION('center_axis',(1.26420016862342E-31,-7.40148683083438E-16,
-1.));
#506=DIRECTION('ref_axis',(8.88178419700125E-17,-1.,7.105427357601E-16));
#507=DIRECTION('',(0.,1.,-7.40148683083438E-16));
#508=DIRECTION('',(1.05735526154777E-16,-1.,7.40148683083438E-16));
#509=DIRECTION('center_axis',(1.70803542250024E-16,-1.,0.));
#510=DIRECTION('ref_axis',(-1.,-1.70803542250024E-16,0.));
#511=DIRECTION('center_axis',(-1.83697019872103E-16,1.,0.));
#512=DIRECTION('ref_axis',(-1.,-1.70803542250024E-16,0.));
#513=DIRECTION('center_axis',(1.77635683940025E-16,-1.,0.));
#514=DIRECTION('ref_axis',(-1.,-1.70803542250024E-16,0.));
#515=DIRECTION('center_axis',(0.,0.,1.));
#516=DIRECTION('ref_axis',(1.,0.,0.));
#517=DIRECTION('',(-0.707106781186548,0.707106781186547,0.));
#518=DIRECTION('',(1.,1.77635683940025E-16,0.));
#519=DIRECTION('',(1.05735526154777E-16,-1.,0.));
#520=DIRECTION('center_axis',(-1.,-1.05735526154777E-16,0.));
#521=DIRECTION('ref_axis',(8.88178419700125E-17,-1.,0.));
#522=DIRECTION('',(0.,0.,-1.));
#523=DIRECTION('',(0.,0.,-1.));
#524=DIRECTION('',(-1.05735526154777E-16,1.,0.));
#525=DIRECTION('center_axis',(0.,0.,-1.));
#526=DIRECTION('ref_axis',(-1.,0.,0.));
#527=DIRECTION('',(0.707106781186548,-0.707106781186547,0.));
#528=DIRECTION('',(-1.,-1.77635683940025E-16,0.));
#529=DIRECTION('center_axis',(1.77635683940025E-16,-1.,0.));
#530=DIRECTION('ref_axis',(1.,1.77635683940025E-16,0.));
#531=DIRECTION('',(0.,0.,-1.));
#532=DIRECTION('center_axis',(0.707106781186547,0.707106781186548,0.));
#533=DIRECTION('ref_axis',(-0.707106781186548,0.707106781186547,0.));
#534=DIRECTION('',(0.,0.,-1.));
#535=DIRECTION('',(0.707106781186548,-0.707106781186547,0.));
#536=DIRECTION('',(0.,0.,-1.));
#537=DIRECTION('center_axis',(0.707106781186547,0.707106781186548,0.));
#538=DIRECTION('ref_axis',(-0.707106781186548,0.707106781186547,0.));
#539=DIRECTION('',(0.,0.,-1.));
#540=DIRECTION('',(-0.707106781186548,0.707106781186547,0.));
#541=DIRECTION('',(0.,0.,-1.));
#542=DIRECTION('center_axis',(0.,0.,-1.));
#543=DIRECTION('ref_axis',(-1.,0.,0.));
#544=DIRECTION('',(0.,1.,0.));
#545=DIRECTION('',(1.,0.,0.));
#546=DIRECTION('',(0.,-1.,0.));
#547=DIRECTION('',(-1.,-1.83697019872103E-16,0.));
#548=DIRECTION('center_axis',(0.,1.,0.));
#549=DIRECTION('ref_axis',(-1.,0.,0.));
#550=DIRECTION('',(0.,0.,-1.));
#551=DIRECTION('',(-1.,0.,0.));
#552=DIRECTION('center_axis',(1.,0.,0.));
#553=DIRECTION('ref_axis',(0.,1.,0.));
#554=DIRECTION('',(0.,1.,0.));
#555=DIRECTION('',(0.,0.,-1.));
#556=DIRECTION('center_axis',(1.83697019872103E-16,-1.,0.));
#557=DIRECTION('ref_axis',(1.,1.83697019872103E-16,0.));
#558=DIRECTION('',(1.,1.83697019872103E-16,0.));
#559=DIRECTION('',(0.,0.,1.));
#560=DIRECTION('center_axis',(-1.,0.,0.));
#561=DIRECTION('ref_axis',(0.,-1.,0.));
#562=DIRECTION('',(0.,-1.,0.));
#563=DIRECTION('center_axis',(0.,0.,1.));
#564=DIRECTION('ref_axis',(1.,0.,0.));
#565=CARTESIAN_POINT('',(0.,0.,0.));
#566=CARTESIAN_POINT('Origin',(13.,3.,-10.));
#567=CARTESIAN_POINT('',(15.25,2.60475401931287E-15,-10.));
#568=CARTESIAN_POINT('Origin',(13.,2.22044604925031E-15,-10.));
#569=CARTESIAN_POINT('',(15.25,3.,-10.));
#570=CARTESIAN_POINT('Origin',(13.,3.,-10.));
#571=CARTESIAN_POINT('Origin',(3.,13.,-10.));
#572=CARTESIAN_POINT('',(0.,13.,-12.25));
#573=CARTESIAN_POINT('',(0.,13.,-7.75));
#574=CARTESIAN_POINT('Origin',(1.11022302462516E-15,13.,-10.));
#575=CARTESIAN_POINT('',(3.,13.,-12.25));
#576=CARTESIAN_POINT('',(3.,13.,-12.25));
#577=CARTESIAN_POINT('',(3.,13.,-7.75));
#578=CARTESIAN_POINT('Origin',(3.,13.,-10.));
#579=CARTESIAN_POINT('',(3.,13.,-7.75));
#580=CARTESIAN_POINT('Origin',(3.,13.,-7.75));
#581=CARTESIAN_POINT('',(0.,10.,-7.75));
#582=CARTESIAN_POINT('',(0.,16.5,-7.75));
#583=CARTESIAN_POINT('',(3.,10.,-7.75));
#584=CARTESIAN_POINT('',(3.,18.5,-7.74999999999999));
#585=CARTESIAN_POINT('',(3.,10.,-7.75));
#586=CARTESIAN_POINT('Origin',(3.,10.,-10.));
#587=CARTESIAN_POINT('',(0.,10.,-12.25));
#588=CARTESIAN_POINT('Origin',(1.66533453693773E-15,10.,-10.));
#589=CARTESIAN_POINT('',(3.,10.,-12.25));
#590=CARTESIAN_POINT('Origin',(3.,10.,-10.));
#591=CARTESIAN_POINT('',(3.,10.,-12.25));
#592=CARTESIAN_POINT('Origin',(3.,10.,-12.25));
#593=CARTESIAN_POINT('',(0.,15.,-12.25));
#594=CARTESIAN_POINT('',(3.,17.,-12.25));
#595=CARTESIAN_POINT('Origin',(3.,13.,10.));
#596=CARTESIAN_POINT('',(0.,13.,7.75));
#597=CARTESIAN_POINT('',(0.,13.,12.25));
#598=CARTESIAN_POINT('Origin',(1.11022302462516E-15,13.,10.));
#599=CARTESIAN_POINT('',(3.,13.,7.75));
#600=CARTESIAN_POINT('',(3.,13.,7.75));
#601=CARTESIAN_POINT('',(3.,13.,12.25));
#602=CARTESIAN_POINT('Origin',(3.,13.,10.));
#603=CARTESIAN_POINT('',(3.,13.,12.25));
#604=CARTESIAN_POINT('Origin',(3.,10.,12.25));
#605=CARTESIAN_POINT('',(0.,10.,12.25));
#606=CARTESIAN_POINT('',(0.,15.,12.25));
#607=CARTESIAN_POINT('',(3.,10.,12.25));
#608=CARTESIAN_POINT('',(3.,17.,12.25));
#609=CARTESIAN_POINT('',(3.,10.,12.25));
#610=CARTESIAN_POINT('Origin',(3.,10.,10.));
#611=CARTESIAN_POINT('',(0.,10.,7.75));
#612=CARTESIAN_POINT('Origin',(1.66533453693773E-15,10.,10.));
#613=CARTESIAN_POINT('',(3.,10.,7.75));
#614=CARTESIAN_POINT('Origin',(3.,10.,10.));
#615=CARTESIAN_POINT('',(3.,10.,7.75));
#616=CARTESIAN_POINT('Origin',(3.,13.,7.75));
#617=CARTESIAN_POINT('',(0.,16.5,7.75));
#618=CARTESIAN_POINT('',(3.,18.5,7.74999999999999));
#619=CARTESIAN_POINT('Origin',(13.,3.,10.));
#620=CARTESIAN_POINT('',(15.25,2.60475401931287E-15,10.));
#621=CARTESIAN_POINT('Origin',(13.,2.22044604925031E-15,10.));
#622=CARTESIAN_POINT('',(15.25,3.,10.));
#623=CARTESIAN_POINT('Origin',(13.,3.,10.));
#624=CARTESIAN_POINT('Origin',(15.5,13.5,14.5));
#625=CARTESIAN_POINT('',(20.,3.,14.5));
#626=CARTESIAN_POINT('',(3.,20.,14.5));
#627=CARTESIAN_POINT('',(16.25,6.75,14.5));
#628=CARTESIAN_POINT('',(3.,3.,14.5));
#629=CARTESIAN_POINT('',(28.,3.,14.5));
#630=CARTESIAN_POINT('',(3.,3.,14.5));
#631=CARTESIAN_POINT('Origin',(3.,24.,0.));
#632=CARTESIAN_POINT('',(3.,20.,-14.5));
#633=CARTESIAN_POINT('',(3.,20.,0.));
#634=CARTESIAN_POINT('',(3.,3.,-14.5));
#635=CARTESIAN_POINT('',(3.,3.,0.));
#636=CARTESIAN_POINT('',(3.,3.,-14.5));
#637=CARTESIAN_POINT('Origin',(15.5,13.5,-14.5));
#638=CARTESIAN_POINT('',(20.,3.,-14.5));
#639=CARTESIAN_POINT('',(16.25,6.75,-14.5));
#640=CARTESIAN_POINT('',(28.,3.,-14.5));
#641=CARTESIAN_POINT('Origin',(3.,3.,0.));
#642=CARTESIAN_POINT('',(20.,3.,0.));
#643=CARTESIAN_POINT('Origin',(20.,3.,0.));
#644=CARTESIAN_POINT('',(20.,3.,-17.5));
#645=CARTESIAN_POINT('',(20.,3.,0.));
#646=CARTESIAN_POINT('',(3.,20.,-17.5));
#647=CARTESIAN_POINT('',(3.,20.,-17.5));
#648=CARTESIAN_POINT('',(3.,20.,0.));
#649=CARTESIAN_POINT('Origin',(20.,3.,0.));
#650=CARTESIAN_POINT('',(3.,20.,17.5));
#651=CARTESIAN_POINT('',(3.,20.,0.));
#652=CARTESIAN_POINT('',(20.,3.,17.5));
#653=CARTESIAN_POINT('',(3.,20.,17.5));
#654=CARTESIAN_POINT('',(20.,3.,0.));
#655=CARTESIAN_POINT('Origin',(7.72367443641783,7.72367443641783,-17.5));
#656=CARTESIAN_POINT('',(0.,0.,-17.5));
#657=CARTESIAN_POINT('',(0.,20.,-17.5));
#658=CARTESIAN_POINT('',(0.,0.,-17.5));
#659=CARTESIAN_POINT('',(0.,20.,-17.5));
#660=CARTESIAN_POINT('',(20.,3.67394039744206E-15,-17.5));
#661=CARTESIAN_POINT('',(20.,3.,-17.5));
#662=CARTESIAN_POINT('',(20.,3.67394039744206E-15,-17.5));
#663=CARTESIAN_POINT('Origin',(3.,20.,0.));
#664=CARTESIAN_POINT('',(0.,20.,17.5));
#665=CARTESIAN_POINT('',(0.,20.,0.));
#666=CARTESIAN_POINT('',(0.,20.,17.5));
#667=CARTESIAN_POINT('Origin',(20.,3.88578058618805E-15,0.));
#668=CARTESIAN_POINT('',(20.,3.67394039744206E-15,17.5));
#669=CARTESIAN_POINT('',(20.,3.,17.5));
#670=CARTESIAN_POINT('',(20.,3.67394039744206E-15,0.));
#671=CARTESIAN_POINT('Origin',(0.,0.,0.));
#672=CARTESIAN_POINT('',(0.,0.,17.5));
#673=CARTESIAN_POINT('',(20.,3.67394039744206E-15,17.5));
#674=CARTESIAN_POINT('',(0.,0.,0.));
#675=CARTESIAN_POINT('Origin',(0.,20.,0.));
#676=CARTESIAN_POINT('',(0.,0.,17.5));
#677=CARTESIAN_POINT('Origin',(7.72367443641783,7.72367443641783,17.5));
#678=UNCERTAINTY_MEASURE_WITH_UNIT(LENGTH_MEASURE(0.01),#682,
'DISTANCE_ACCURACY_VALUE',
'Maximum model space distance between geometric entities at asserted c
onnectivities');
#679=UNCERTAINTY_MEASURE_WITH_UNIT(LENGTH_MEASURE(1.E-6),#682,
'DISTANCE_ACCURACY_VALUE',
'Maximum model space distance between geometric entities at asserted c
onnectivities');
#680=(
GEOMETRIC_REPRESENTATION_CONTEXT(3)
GLOBAL_UNCERTAINTY_ASSIGNED_CONTEXT((#678))
GLOBAL_UNIT_ASSIGNED_CONTEXT((#682,#685,#683))
REPRESENTATION_CONTEXT('','3D')
);
#681=(
GEOMETRIC_REPRESENTATION_CONTEXT(3)
GLOBAL_UNCERTAINTY_ASSIGNED_CONTEXT((#679))
GLOBAL_UNIT_ASSIGNED_CONTEXT((#682,#685,#683))
REPRESENTATION_CONTEXT('','3D')
);
#682=(
LENGTH_UNIT()
NAMED_UNIT(*)
SI_UNIT(.MILLI.,.METRE.)
);
#683=(
NAMED_UNIT(*)
SI_UNIT($,.STERADIAN.)
SOLID_ANGLE_UNIT()
);
#684=DIMENSIONAL_EXPONENTS(0.,0.,0.,0.,0.,0.,0.);
#685=(
CONVERSION_BASED_UNIT('degree',#687)
NAMED_UNIT(#684)
PLANE_ANGLE_UNIT()
);
#686=(
NAMED_UNIT(*)
PLANE_ANGLE_UNIT()
SI_UNIT($,.RADIAN.)
);
#687=PLANE_ANGLE_MEASURE_WITH_UNIT(PLANE_ANGLE_MEASURE(0.01745329252),#686);
#688=SHAPE_DEFINITION_REPRESENTATION(#689,#690);
#689=PRODUCT_DEFINITION_SHAPE('',$,#692);
#690=SHAPE_REPRESENTATION('',(#418),#680);
#691=PRODUCT_DEFINITION_CONTEXT('part definition',#696,'design');
#692=PRODUCT_DEFINITION('DCB2035-4','DCB2035-4',#693,#691);
#693=PRODUCT_DEFINITION_FORMATION('',$,#698);
#694=PRODUCT_RELATED_PRODUCT_CATEGORY('DCB2035-4','DCB2035-4',(#698));
#695=APPLICATION_PROTOCOL_DEFINITION('international standard',
'automotive_design',2009,#696);
#696=APPLICATION_CONTEXT(
'Core Data for Automotive Mechanical Design Process');
#697=PRODUCT_CONTEXT('part definition',#696,'mechanical');
#698=PRODUCT('DCB2035-4','DCB2035-4',$,(#697));
#699=PRESENTATION_STYLE_ASSIGNMENT((#700));
#700=SURFACE_STYLE_USAGE(.BOTH.,#701);
#701=SURFACE_SIDE_STYLE($,(#702));
#702=SURFACE_STYLE_FILL_AREA(#703);
#703=FILL_AREA_STYLE($,(#704));
#704=FILL_AREA_STYLE_COLOUR($,#705);
#705=COLOUR_RGB('',0.749019607843137,0.749019607843137,0.749019607843137);
ENDSEC;
END-ISO-10303-21;
