ISO-10303-21;
HEADER;
/* Generated by software containing ST-Developer
 * from STEP Tools, Inc. (www.steptools.com) 
 */

FILE_DESCRIPTION(
/* description */ (''),
/* implementation_level */ '2;1');

FILE_NAME(
/* name */ 'D:\\\X2\96F64EF6\X0\\\M4\X2\7CFB5217\X0\\\\X2\914D4EF6\X0\\\
DCB2015-4.stp',
/* time_stamp */ '2025-03-24T11:50:38+08:00',
/* author */ ('1091212-1'),
/* organization */ (''),
/* preprocessor_version */ 'ST-DEVELOPER v15.6',
/* originating_system */ 'Autodesk Inventor 2015',
/* authorisation */ '');

FILE_SCHEMA (('AUTOMOTIVE_DESIGN { 1 0 10303 214 3 1 1 }'));
ENDSEC;

DATA;
#10=MECHANICAL_DESIGN_GEOMETRIC_PRESENTATION_REPRESENTATION('',(#13),#507);
#11=SHAPE_REPRESENTATION_RELATIONSHIP('SRR','None',#516,#12);
#12=ADVANCED_BREP_SHAPE_REPRESENTATION($,(#14),#506);
#13=STYLED_ITEM('',(#525),#14);
#14=MANIFOLD_SOLID_BREP('\X2\5BE69AD4\X0\1',#313);
#15=FACE_BOUND('',#56,.T.);
#16=FACE_BOUND('',#59,.T.);
#17=FACE_BOUND('',#62,.T.);
#18=FACE_BOUND('',#69,.T.);
#19=FACE_BOUND('',#71,.T.);
#20=PLANE('',#318);
#21=PLANE('',#322);
#22=PLANE('',#326);
#23=PLANE('',#327);
#24=PLANE('',#328);
#25=PLANE('',#329);
#26=PLANE('',#330);
#27=PLANE('',#331);
#28=PLANE('',#332);
#29=PLANE('',#333);
#30=PLANE('',#334);
#31=PLANE('',#335);
#32=PLANE('',#336);
#33=PLANE('',#337);
#34=FACE_OUTER_BOUND('',#51,.T.);
#35=FACE_OUTER_BOUND('',#52,.T.);
#36=FACE_OUTER_BOUND('',#53,.T.);
#37=FACE_OUTER_BOUND('',#54,.T.);
#38=FACE_OUTER_BOUND('',#55,.T.);
#39=FACE_OUTER_BOUND('',#57,.T.);
#40=FACE_OUTER_BOUND('',#58,.T.);
#41=FACE_OUTER_BOUND('',#60,.T.);
#42=FACE_OUTER_BOUND('',#61,.T.);
#43=FACE_OUTER_BOUND('',#63,.T.);
#44=FACE_OUTER_BOUND('',#64,.T.);
#45=FACE_OUTER_BOUND('',#65,.T.);
#46=FACE_OUTER_BOUND('',#66,.T.);
#47=FACE_OUTER_BOUND('',#67,.T.);
#48=FACE_OUTER_BOUND('',#68,.T.);
#49=FACE_OUTER_BOUND('',#70,.T.);
#50=FACE_OUTER_BOUND('',#72,.T.);
#51=EDGE_LOOP('',(#213,#214,#215,#216));
#52=EDGE_LOOP('',(#217,#218,#219,#220));
#53=EDGE_LOOP('',(#221,#222,#223,#224));
#54=EDGE_LOOP('',(#225,#226,#227,#228));
#55=EDGE_LOOP('',(#229));
#56=EDGE_LOOP('',(#230));
#57=EDGE_LOOP('',(#231,#232,#233));
#58=EDGE_LOOP('',(#234,#235,#236,#237));
#59=EDGE_LOOP('',(#238,#239,#240,#241));
#60=EDGE_LOOP('',(#242,#243,#244));
#61=EDGE_LOOP('',(#245,#246,#247,#248));
#62=EDGE_LOOP('',(#249));
#63=EDGE_LOOP('',(#250,#251,#252,#253));
#64=EDGE_LOOP('',(#254,#255,#256,#257));
#65=EDGE_LOOP('',(#258,#259,#260,#261,#262));
#66=EDGE_LOOP('',(#263,#264,#265,#266,#267,#268));
#67=EDGE_LOOP('',(#269,#270,#271,#272,#273,#274));
#68=EDGE_LOOP('',(#275,#276,#277,#278));
#69=EDGE_LOOP('',(#279));
#70=EDGE_LOOP('',(#280,#281,#282,#283));
#71=EDGE_LOOP('',(#284,#285,#286,#287));
#72=EDGE_LOOP('',(#288,#289,#290,#291,#292));
#73=LINE('',#426,#107);
#74=LINE('',#429,#108);
#75=LINE('',#432,#109);
#76=LINE('',#434,#110);
#77=LINE('',#435,#111);
#78=LINE('',#441,#112);
#79=LINE('',#443,#113);
#80=LINE('',#444,#114);
#81=LINE('',#453,#115);
#82=LINE('',#455,#116);
#83=LINE('',#456,#117);
#84=LINE('',#459,#118);
#85=LINE('',#461,#119);
#86=LINE('',#462,#120);
#87=LINE('',#465,#121);
#88=LINE('',#466,#122);
#89=LINE('',#468,#123);
#90=LINE('',#471,#124);
#91=LINE('',#473,#125);
#92=LINE('',#474,#126);
#93=LINE('',#477,#127);
#94=LINE('',#479,#128);
#95=LINE('',#480,#129);
#96=LINE('',#484,#130);
#97=LINE('',#485,#131);
#98=LINE('',#487,#132);
#99=LINE('',#488,#133);
#100=LINE('',#491,#134);
#101=LINE('',#492,#135);
#102=LINE('',#495,#136);
#103=LINE('',#496,#137);
#104=LINE('',#499,#138);
#105=LINE('',#500,#139);
#106=LINE('',#502,#140);
#107=VECTOR('',#344,3.);
#108=VECTOR('',#347,3.);
#109=VECTOR('',#350,3.);
#110=VECTOR('',#351,3.);
#111=VECTOR('',#352,3.);
#112=VECTOR('',#359,3.);
#113=VECTOR('',#362,3.);
#114=VECTOR('',#363,3.);
#115=VECTOR('',#372,24.0416305603426);
#116=VECTOR('',#373,17.);
#117=VECTOR('',#374,17.);
#118=VECTOR('',#377,9.);
#119=VECTOR('',#378,9.);
#120=VECTOR('',#379,17.);
#121=VECTOR('',#382,24.0416305603426);
#122=VECTOR('',#383,17.);
#123=VECTOR('',#386,9.);
#124=VECTOR('',#389,3.);
#125=VECTOR('',#390,24.0416305603426);
#126=VECTOR('',#391,3.);
#127=VECTOR('',#394,3.);
#128=VECTOR('',#395,24.0416305603426);
#129=VECTOR('',#396,3.);
#130=VECTOR('',#399,20.);
#131=VECTOR('',#400,3.);
#132=VECTOR('',#401,3.);
#133=VECTOR('',#402,20.);
#134=VECTOR('',#405,15.);
#135=VECTOR('',#406,3.);
#136=VECTOR('',#409,3.);
#137=VECTOR('',#410,15.);
#138=VECTOR('',#413,20.);
#139=VECTOR('',#414,15.);
#140=VECTOR('',#417,20.);
#141=CIRCLE('',#316,2.25);
#142=CIRCLE('',#317,2.25);
#143=CIRCLE('',#320,2.25);
#144=CIRCLE('',#321,2.25);
#145=CIRCLE('',#324,2.25);
#146=CIRCLE('',#325,2.25);
#147=VERTEX_POINT('',#422);
#148=VERTEX_POINT('',#423);
#149=VERTEX_POINT('',#425);
#150=VERTEX_POINT('',#427);
#151=VERTEX_POINT('',#431);
#152=VERTEX_POINT('',#433);
#153=VERTEX_POINT('',#437);
#154=VERTEX_POINT('',#439);
#155=VERTEX_POINT('',#446);
#156=VERTEX_POINT('',#448);
#157=VERTEX_POINT('',#451);
#158=VERTEX_POINT('',#452);
#159=VERTEX_POINT('',#454);
#160=VERTEX_POINT('',#458);
#161=VERTEX_POINT('',#460);
#162=VERTEX_POINT('',#464);
#163=VERTEX_POINT('',#470);
#164=VERTEX_POINT('',#472);
#165=VERTEX_POINT('',#476);
#166=VERTEX_POINT('',#478);
#167=VERTEX_POINT('',#482);
#168=VERTEX_POINT('',#483);
#169=VERTEX_POINT('',#486);
#170=VERTEX_POINT('',#490);
#171=VERTEX_POINT('',#494);
#172=VERTEX_POINT('',#498);
#173=EDGE_CURVE('',#147,#148,#141,.T.);
#174=EDGE_CURVE('',#149,#147,#73,.T.);
#175=EDGE_CURVE('',#150,#149,#142,.T.);
#176=EDGE_CURVE('',#150,#148,#74,.T.);
#177=EDGE_CURVE('',#148,#151,#75,.T.);
#178=EDGE_CURVE('',#152,#150,#76,.T.);
#179=EDGE_CURVE('',#152,#151,#77,.T.);
#180=EDGE_CURVE('',#151,#153,#143,.T.);
#181=EDGE_CURVE('',#154,#152,#144,.T.);
#182=EDGE_CURVE('',#154,#153,#78,.T.);
#183=EDGE_CURVE('',#153,#147,#79,.T.);
#184=EDGE_CURVE('',#149,#154,#80,.T.);
#185=EDGE_CURVE('',#155,#155,#145,.T.);
#186=EDGE_CURVE('',#156,#156,#146,.T.);
#187=EDGE_CURVE('',#157,#158,#81,.T.);
#188=EDGE_CURVE('',#159,#157,#82,.T.);
#189=EDGE_CURVE('',#158,#159,#83,.T.);
#190=EDGE_CURVE('',#158,#160,#84,.T.);
#191=EDGE_CURVE('',#159,#161,#85,.T.);
#192=EDGE_CURVE('',#161,#160,#86,.T.);
#193=EDGE_CURVE('',#160,#162,#87,.T.);
#194=EDGE_CURVE('',#162,#161,#88,.T.);
#195=EDGE_CURVE('',#157,#162,#89,.T.);
#196=EDGE_CURVE('',#162,#163,#90,.T.);
#197=EDGE_CURVE('',#164,#163,#91,.T.);
#198=EDGE_CURVE('',#160,#164,#92,.T.);
#199=EDGE_CURVE('',#165,#158,#93,.T.);
#200=EDGE_CURVE('',#166,#165,#94,.T.);
#201=EDGE_CURVE('',#166,#157,#95,.T.);
#202=EDGE_CURVE('',#167,#168,#96,.T.);
#203=EDGE_CURVE('',#168,#164,#97,.T.);
#204=EDGE_CURVE('',#163,#169,#98,.T.);
#205=EDGE_CURVE('',#169,#167,#99,.T.);
#206=EDGE_CURVE('',#170,#168,#100,.T.);
#207=EDGE_CURVE('',#165,#170,#101,.T.);
#208=EDGE_CURVE('',#171,#166,#102,.T.);
#209=EDGE_CURVE('',#171,#169,#103,.T.);
#210=EDGE_CURVE('',#172,#171,#104,.T.);
#211=EDGE_CURVE('',#167,#172,#105,.T.);
#212=EDGE_CURVE('',#170,#172,#106,.T.);
#213=ORIENTED_EDGE('',*,*,#173,.F.);
#214=ORIENTED_EDGE('',*,*,#174,.F.);
#215=ORIENTED_EDGE('',*,*,#175,.F.);
#216=ORIENTED_EDGE('',*,*,#176,.T.);
#217=ORIENTED_EDGE('',*,*,#177,.F.);
#218=ORIENTED_EDGE('',*,*,#176,.F.);
#219=ORIENTED_EDGE('',*,*,#178,.F.);
#220=ORIENTED_EDGE('',*,*,#179,.T.);
#221=ORIENTED_EDGE('',*,*,#180,.F.);
#222=ORIENTED_EDGE('',*,*,#179,.F.);
#223=ORIENTED_EDGE('',*,*,#181,.F.);
#224=ORIENTED_EDGE('',*,*,#182,.T.);
#225=ORIENTED_EDGE('',*,*,#183,.F.);
#226=ORIENTED_EDGE('',*,*,#182,.F.);
#227=ORIENTED_EDGE('',*,*,#184,.F.);
#228=ORIENTED_EDGE('',*,*,#174,.T.);
#229=ORIENTED_EDGE('',*,*,#185,.F.);
#230=ORIENTED_EDGE('',*,*,#186,.F.);
#231=ORIENTED_EDGE('',*,*,#187,.F.);
#232=ORIENTED_EDGE('',*,*,#188,.F.);
#233=ORIENTED_EDGE('',*,*,#189,.F.);
#234=ORIENTED_EDGE('',*,*,#190,.F.);
#235=ORIENTED_EDGE('',*,*,#189,.T.);
#236=ORIENTED_EDGE('',*,*,#191,.T.);
#237=ORIENTED_EDGE('',*,*,#192,.T.);
#238=ORIENTED_EDGE('',*,*,#181,.T.);
#239=ORIENTED_EDGE('',*,*,#178,.T.);
#240=ORIENTED_EDGE('',*,*,#175,.T.);
#241=ORIENTED_EDGE('',*,*,#184,.T.);
#242=ORIENTED_EDGE('',*,*,#193,.F.);
#243=ORIENTED_EDGE('',*,*,#192,.F.);
#244=ORIENTED_EDGE('',*,*,#194,.F.);
#245=ORIENTED_EDGE('',*,*,#195,.T.);
#246=ORIENTED_EDGE('',*,*,#194,.T.);
#247=ORIENTED_EDGE('',*,*,#191,.F.);
#248=ORIENTED_EDGE('',*,*,#188,.T.);
#249=ORIENTED_EDGE('',*,*,#186,.T.);
#250=ORIENTED_EDGE('',*,*,#193,.T.);
#251=ORIENTED_EDGE('',*,*,#196,.T.);
#252=ORIENTED_EDGE('',*,*,#197,.F.);
#253=ORIENTED_EDGE('',*,*,#198,.F.);
#254=ORIENTED_EDGE('',*,*,#187,.T.);
#255=ORIENTED_EDGE('',*,*,#199,.F.);
#256=ORIENTED_EDGE('',*,*,#200,.F.);
#257=ORIENTED_EDGE('',*,*,#201,.T.);
#258=ORIENTED_EDGE('',*,*,#202,.T.);
#259=ORIENTED_EDGE('',*,*,#203,.T.);
#260=ORIENTED_EDGE('',*,*,#197,.T.);
#261=ORIENTED_EDGE('',*,*,#204,.T.);
#262=ORIENTED_EDGE('',*,*,#205,.T.);
#263=ORIENTED_EDGE('',*,*,#206,.F.);
#264=ORIENTED_EDGE('',*,*,#207,.F.);
#265=ORIENTED_EDGE('',*,*,#199,.T.);
#266=ORIENTED_EDGE('',*,*,#190,.T.);
#267=ORIENTED_EDGE('',*,*,#198,.T.);
#268=ORIENTED_EDGE('',*,*,#203,.F.);
#269=ORIENTED_EDGE('',*,*,#201,.F.);
#270=ORIENTED_EDGE('',*,*,#208,.F.);
#271=ORIENTED_EDGE('',*,*,#209,.T.);
#272=ORIENTED_EDGE('',*,*,#204,.F.);
#273=ORIENTED_EDGE('',*,*,#196,.F.);
#274=ORIENTED_EDGE('',*,*,#195,.F.);
#275=ORIENTED_EDGE('',*,*,#209,.F.);
#276=ORIENTED_EDGE('',*,*,#210,.F.);
#277=ORIENTED_EDGE('',*,*,#211,.F.);
#278=ORIENTED_EDGE('',*,*,#205,.F.);
#279=ORIENTED_EDGE('',*,*,#185,.T.);
#280=ORIENTED_EDGE('',*,*,#211,.T.);
#281=ORIENTED_EDGE('',*,*,#212,.F.);
#282=ORIENTED_EDGE('',*,*,#206,.T.);
#283=ORIENTED_EDGE('',*,*,#202,.F.);
#284=ORIENTED_EDGE('',*,*,#180,.T.);
#285=ORIENTED_EDGE('',*,*,#183,.T.);
#286=ORIENTED_EDGE('',*,*,#173,.T.);
#287=ORIENTED_EDGE('',*,*,#177,.T.);
#288=ORIENTED_EDGE('',*,*,#212,.T.);
#289=ORIENTED_EDGE('',*,*,#210,.T.);
#290=ORIENTED_EDGE('',*,*,#208,.T.);
#291=ORIENTED_EDGE('',*,*,#200,.T.);
#292=ORIENTED_EDGE('',*,*,#207,.T.);
#293=CYLINDRICAL_SURFACE('',#315,2.25);
#294=CYLINDRICAL_SURFACE('',#319,2.25);
#295=CYLINDRICAL_SURFACE('',#323,2.25);
#296=ADVANCED_FACE('',(#34),#293,.F.);
#297=ADVANCED_FACE('',(#35),#20,.F.);
#298=ADVANCED_FACE('',(#36),#294,.F.);
#299=ADVANCED_FACE('',(#37),#21,.F.);
#300=ADVANCED_FACE('',(#38,#15),#295,.F.);
#301=ADVANCED_FACE('',(#39),#22,.F.);
#302=ADVANCED_FACE('',(#40,#16),#23,.F.);
#303=ADVANCED_FACE('',(#41),#24,.F.);
#304=ADVANCED_FACE('',(#42,#17),#25,.F.);
#305=ADVANCED_FACE('',(#43),#26,.T.);
#306=ADVANCED_FACE('',(#44),#27,.T.);
#307=ADVANCED_FACE('',(#45),#28,.T.);
#308=ADVANCED_FACE('',(#46),#29,.T.);
#309=ADVANCED_FACE('',(#47),#30,.T.);
#310=ADVANCED_FACE('',(#48,#18),#31,.T.);
#311=ADVANCED_FACE('',(#49,#19),#32,.T.);
#312=ADVANCED_FACE('',(#50),#33,.T.);
#313=CLOSED_SHELL('',(#296,#297,#298,#299,#300,#301,#302,#303,#304,#305,
#306,#307,#308,#309,#310,#311,#312));
#314=AXIS2_PLACEMENT_3D('placement',#420,#338,#339);
#315=AXIS2_PLACEMENT_3D('',#421,#340,#341);
#316=AXIS2_PLACEMENT_3D('',#424,#342,#343);
#317=AXIS2_PLACEMENT_3D('',#428,#345,#346);
#318=AXIS2_PLACEMENT_3D('',#430,#348,#349);
#319=AXIS2_PLACEMENT_3D('',#436,#353,#354);
#320=AXIS2_PLACEMENT_3D('',#438,#355,#356);
#321=AXIS2_PLACEMENT_3D('',#440,#357,#358);
#322=AXIS2_PLACEMENT_3D('',#442,#360,#361);
#323=AXIS2_PLACEMENT_3D('',#445,#364,#365);
#324=AXIS2_PLACEMENT_3D('',#447,#366,#367);
#325=AXIS2_PLACEMENT_3D('',#449,#368,#369);
#326=AXIS2_PLACEMENT_3D('',#450,#370,#371);
#327=AXIS2_PLACEMENT_3D('',#457,#375,#376);
#328=AXIS2_PLACEMENT_3D('',#463,#380,#381);
#329=AXIS2_PLACEMENT_3D('',#467,#384,#385);
#330=AXIS2_PLACEMENT_3D('',#469,#387,#388);
#331=AXIS2_PLACEMENT_3D('',#475,#392,#393);
#332=AXIS2_PLACEMENT_3D('',#481,#397,#398);
#333=AXIS2_PLACEMENT_3D('',#489,#403,#404);
#334=AXIS2_PLACEMENT_3D('',#493,#407,#408);
#335=AXIS2_PLACEMENT_3D('',#497,#411,#412);
#336=AXIS2_PLACEMENT_3D('',#501,#415,#416);
#337=AXIS2_PLACEMENT_3D('',#503,#418,#419);
#338=DIRECTION('axis',(0.,0.,1.));
#339=DIRECTION('refdir',(1.,0.,0.));
#340=DIRECTION('center_axis',(-1.,-1.70803542250024E-16,0.));
#341=DIRECTION('ref_axis',(0.,0.,-1.));
#342=DIRECTION('center_axis',(1.,0.,0.));
#343=DIRECTION('ref_axis',(0.,0.,-1.));
#344=DIRECTION('',(-1.,-1.70803542250024E-16,0.));
#345=DIRECTION('center_axis',(-1.,-1.05735526154777E-16,0.));
#346=DIRECTION('ref_axis',(0.,0.,-1.));
#347=DIRECTION('',(-1.,-1.70803542250024E-16,0.));
#348=DIRECTION('center_axis',(0.,0.,1.));
#349=DIRECTION('ref_axis',(-8.88178419700125E-17,1.,0.));
#350=DIRECTION('',(0.,-1.,0.));
#351=DIRECTION('',(-1.05735526154777E-16,1.,0.));
#352=DIRECTION('',(-1.,-1.70803542250024E-16,0.));
#353=DIRECTION('center_axis',(-1.,-1.70803542250024E-16,0.));
#354=DIRECTION('ref_axis',(0.,0.,1.));
#355=DIRECTION('center_axis',(1.,0.,0.));
#356=DIRECTION('ref_axis',(0.,0.,1.));
#357=DIRECTION('center_axis',(-1.,-1.05735526154777E-16,0.));
#358=DIRECTION('ref_axis',(0.,0.,1.));
#359=DIRECTION('',(-1.,-1.70803542250024E-16,0.));
#360=DIRECTION('center_axis',(-6.32100084311708E-32,3.70074341541719E-16,
-1.));
#361=DIRECTION('ref_axis',(8.88178419700125E-17,-1.,-3.5527136788005E-16));
#362=DIRECTION('',(0.,1.,3.70074341541719E-16));
#363=DIRECTION('',(1.05735526154777E-16,-1.,-3.70074341541719E-16));
#364=DIRECTION('center_axis',(1.70803542250024E-16,-1.,0.));
#365=DIRECTION('ref_axis',(-1.,-1.70803542250024E-16,0.));
#366=DIRECTION('center_axis',(-1.83697019872103E-16,1.,0.));
#367=DIRECTION('ref_axis',(-1.,-1.70803542250024E-16,0.));
#368=DIRECTION('center_axis',(1.77635683940025E-16,-1.,0.));
#369=DIRECTION('ref_axis',(-1.,-1.70803542250024E-16,0.));
#370=DIRECTION('center_axis',(0.,0.,1.));
#371=DIRECTION('ref_axis',(1.,0.,0.));
#372=DIRECTION('',(-0.707106781186548,0.707106781186547,0.));
#373=DIRECTION('',(1.,1.77635683940025E-16,0.));
#374=DIRECTION('',(1.05735526154777E-16,-1.,0.));
#375=DIRECTION('center_axis',(-1.,-1.05735526154777E-16,0.));
#376=DIRECTION('ref_axis',(8.88178419700125E-17,-1.,0.));
#377=DIRECTION('',(0.,0.,-1.));
#378=DIRECTION('',(0.,0.,-1.));
#379=DIRECTION('',(-1.05735526154777E-16,1.,0.));
#380=DIRECTION('center_axis',(0.,0.,-1.));
#381=DIRECTION('ref_axis',(-1.,0.,0.));
#382=DIRECTION('',(0.707106781186548,-0.707106781186547,0.));
#383=DIRECTION('',(-1.,-1.77635683940025E-16,0.));
#384=DIRECTION('center_axis',(1.77635683940025E-16,-1.,0.));
#385=DIRECTION('ref_axis',(1.,1.77635683940025E-16,0.));
#386=DIRECTION('',(0.,0.,-1.));
#387=DIRECTION('center_axis',(0.707106781186547,0.707106781186548,0.));
#388=DIRECTION('ref_axis',(-0.707106781186548,0.707106781186547,0.));
#389=DIRECTION('',(0.,0.,-1.));
#390=DIRECTION('',(0.707106781186548,-0.707106781186547,0.));
#391=DIRECTION('',(0.,0.,-1.));
#392=DIRECTION('center_axis',(0.707106781186547,0.707106781186548,0.));
#393=DIRECTION('ref_axis',(-0.707106781186548,0.707106781186547,0.));
#394=DIRECTION('',(0.,0.,-1.));
#395=DIRECTION('',(-0.707106781186548,0.707106781186547,0.));
#396=DIRECTION('',(0.,0.,-1.));
#397=DIRECTION('center_axis',(0.,0.,-1.));
#398=DIRECTION('ref_axis',(-1.,0.,0.));
#399=DIRECTION('',(0.,1.,0.));
#400=DIRECTION('',(1.,0.,0.));
#401=DIRECTION('',(0.,-1.,0.));
#402=DIRECTION('',(-1.,-1.83697019872103E-16,0.));
#403=DIRECTION('center_axis',(0.,1.,0.));
#404=DIRECTION('ref_axis',(-1.,0.,0.));
#405=DIRECTION('',(0.,0.,-1.));
#406=DIRECTION('',(-1.,0.,0.));
#407=DIRECTION('center_axis',(1.,0.,0.));
#408=DIRECTION('ref_axis',(0.,1.,0.));
#409=DIRECTION('',(0.,1.,0.));
#410=DIRECTION('',(0.,0.,-1.));
#411=DIRECTION('center_axis',(1.83697019872103E-16,-1.,0.));
#412=DIRECTION('ref_axis',(1.,1.83697019872103E-16,0.));
#413=DIRECTION('',(1.,1.83697019872103E-16,0.));
#414=DIRECTION('',(0.,0.,1.));
#415=DIRECTION('center_axis',(-1.,0.,0.));
#416=DIRECTION('ref_axis',(0.,-1.,0.));
#417=DIRECTION('',(0.,-1.,0.));
#418=DIRECTION('center_axis',(0.,0.,1.));
#419=DIRECTION('ref_axis',(1.,0.,0.));
#420=CARTESIAN_POINT('',(0.,0.,0.));
#421=CARTESIAN_POINT('Origin',(3.,13.,0.));
#422=CARTESIAN_POINT('',(0.,13.,-2.25));
#423=CARTESIAN_POINT('',(0.,13.,2.25));
#424=CARTESIAN_POINT('Origin',(1.11022302462516E-15,13.,0.));
#425=CARTESIAN_POINT('',(3.,13.,-2.25));
#426=CARTESIAN_POINT('',(3.,13.,-2.25));
#427=CARTESIAN_POINT('',(3.,13.,2.25));
#428=CARTESIAN_POINT('Origin',(3.,13.,0.));
#429=CARTESIAN_POINT('',(3.,13.,2.25));
#430=CARTESIAN_POINT('Origin',(3.,10.,2.25));
#431=CARTESIAN_POINT('',(0.,10.,2.25));
#432=CARTESIAN_POINT('',(0.,15.,2.25));
#433=CARTESIAN_POINT('',(3.,10.,2.25));
#434=CARTESIAN_POINT('',(3.,17.,2.25));
#435=CARTESIAN_POINT('',(3.,10.,2.25));
#436=CARTESIAN_POINT('Origin',(3.,10.,-5.55111512312578E-16));
#437=CARTESIAN_POINT('',(0.,10.,-2.25));
#438=CARTESIAN_POINT('Origin',(1.66533453693773E-15,10.,-5.55111512312578E-16));
#439=CARTESIAN_POINT('',(3.,10.,-2.25));
#440=CARTESIAN_POINT('Origin',(3.,10.,-5.55111512312578E-16));
#441=CARTESIAN_POINT('',(3.,10.,-2.25));
#442=CARTESIAN_POINT('Origin',(3.,13.,-2.25));
#443=CARTESIAN_POINT('',(0.,16.5,-2.25));
#444=CARTESIAN_POINT('',(3.,18.5,-2.25));
#445=CARTESIAN_POINT('Origin',(13.,3.,0.));
#446=CARTESIAN_POINT('',(15.25,2.60475401931287E-15,-2.75545529808154E-16));
#447=CARTESIAN_POINT('Origin',(13.,2.22044604925031E-15,0.));
#448=CARTESIAN_POINT('',(15.25,3.,-2.75545529808154E-16));
#449=CARTESIAN_POINT('Origin',(13.,3.,0.));
#450=CARTESIAN_POINT('Origin',(15.5,13.5,4.5));
#451=CARTESIAN_POINT('',(20.,3.,4.5));
#452=CARTESIAN_POINT('',(3.,20.,4.5));
#453=CARTESIAN_POINT('',(16.25,6.75,4.5));
#454=CARTESIAN_POINT('',(3.,3.,4.5));
#455=CARTESIAN_POINT('',(28.,3.,4.5));
#456=CARTESIAN_POINT('',(3.,3.,4.5));
#457=CARTESIAN_POINT('Origin',(3.,24.,0.));
#458=CARTESIAN_POINT('',(3.,20.,-4.5));
#459=CARTESIAN_POINT('',(3.,20.,0.));
#460=CARTESIAN_POINT('',(3.,3.,-4.5));
#461=CARTESIAN_POINT('',(3.,3.,0.));
#462=CARTESIAN_POINT('',(3.,3.,-4.5));
#463=CARTESIAN_POINT('Origin',(15.5,13.5,-4.5));
#464=CARTESIAN_POINT('',(20.,3.,-4.5));
#465=CARTESIAN_POINT('',(16.25,6.75,-4.5));
#466=CARTESIAN_POINT('',(28.,3.,-4.5));
#467=CARTESIAN_POINT('Origin',(3.,3.,0.));
#468=CARTESIAN_POINT('',(20.,3.,0.));
#469=CARTESIAN_POINT('Origin',(20.,3.,0.));
#470=CARTESIAN_POINT('',(20.,3.,-7.5));
#471=CARTESIAN_POINT('',(20.,3.,0.));
#472=CARTESIAN_POINT('',(3.,20.,-7.5));
#473=CARTESIAN_POINT('',(3.,20.,-7.5));
#474=CARTESIAN_POINT('',(3.,20.,0.));
#475=CARTESIAN_POINT('Origin',(20.,3.,0.));
#476=CARTESIAN_POINT('',(3.,20.,7.5));
#477=CARTESIAN_POINT('',(3.,20.,0.));
#478=CARTESIAN_POINT('',(20.,3.,7.5));
#479=CARTESIAN_POINT('',(3.,20.,7.5));
#480=CARTESIAN_POINT('',(20.,3.,0.));
#481=CARTESIAN_POINT('Origin',(7.72367443641783,7.72367443641783,-7.5));
#482=CARTESIAN_POINT('',(0.,0.,-7.5));
#483=CARTESIAN_POINT('',(0.,20.,-7.5));
#484=CARTESIAN_POINT('',(0.,0.,-7.5));
#485=CARTESIAN_POINT('',(0.,20.,-7.5));
#486=CARTESIAN_POINT('',(20.,3.67394039744206E-15,-7.5));
#487=CARTESIAN_POINT('',(20.,3.,-7.5));
#488=CARTESIAN_POINT('',(20.,3.67394039744206E-15,-7.5));
#489=CARTESIAN_POINT('Origin',(3.,20.,0.));
#490=CARTESIAN_POINT('',(0.,20.,7.5));
#491=CARTESIAN_POINT('',(0.,20.,0.));
#492=CARTESIAN_POINT('',(0.,20.,7.5));
#493=CARTESIAN_POINT('Origin',(20.,3.88578058618805E-15,0.));
#494=CARTESIAN_POINT('',(20.,3.67394039744206E-15,7.5));
#495=CARTESIAN_POINT('',(20.,3.,7.5));
#496=CARTESIAN_POINT('',(20.,3.67394039744206E-15,0.));
#497=CARTESIAN_POINT('Origin',(0.,0.,0.));
#498=CARTESIAN_POINT('',(0.,0.,7.5));
#499=CARTESIAN_POINT('',(20.,3.67394039744206E-15,7.5));
#500=CARTESIAN_POINT('',(0.,0.,0.));
#501=CARTESIAN_POINT('Origin',(0.,20.,0.));
#502=CARTESIAN_POINT('',(0.,0.,7.5));
#503=CARTESIAN_POINT('Origin',(7.72367443641783,7.72367443641783,7.5));
#504=UNCERTAINTY_MEASURE_WITH_UNIT(LENGTH_MEASURE(0.01),#508,
'DISTANCE_ACCURACY_VALUE',
'Maximum model space distance between geometric entities at asserted c
onnectivities');
#505=UNCERTAINTY_MEASURE_WITH_UNIT(LENGTH_MEASURE(1.E-6),#508,
'DISTANCE_ACCURACY_VALUE',
'Maximum model space distance between geometric entities at asserted c
onnectivities');
#506=(
GEOMETRIC_REPRESENTATION_CONTEXT(3)
GLOBAL_UNCERTAINTY_ASSIGNED_CONTEXT((#504))
GLOBAL_UNIT_ASSIGNED_CONTEXT((#508,#511,#509))
REPRESENTATION_CONTEXT('','3D')
);
#507=(
GEOMETRIC_REPRESENTATION_CONTEXT(3)
GLOBAL_UNCERTAINTY_ASSIGNED_CONTEXT((#505))
GLOBAL_UNIT_ASSIGNED_CONTEXT((#508,#511,#509))
REPRESENTATION_CONTEXT('','3D')
);
#508=(
LENGTH_UNIT()
NAMED_UNIT(*)
SI_UNIT(.MILLI.,.METRE.)
);
#509=(
NAMED_UNIT(*)
SI_UNIT($,.STERADIAN.)
SOLID_ANGLE_UNIT()
);
#510=DIMENSIONAL_EXPONENTS(0.,0.,0.,0.,0.,0.,0.);
#511=(
CONVERSION_BASED_UNIT('degree',#513)
NAMED_UNIT(#510)
PLANE_ANGLE_UNIT()
);
#512=(
NAMED_UNIT(*)
PLANE_ANGLE_UNIT()
SI_UNIT($,.RADIAN.)
);
#513=PLANE_ANGLE_MEASURE_WITH_UNIT(PLANE_ANGLE_MEASURE(0.01745329252),#512);
#514=SHAPE_DEFINITION_REPRESENTATION(#515,#516);
#515=PRODUCT_DEFINITION_SHAPE('',$,#518);
#516=SHAPE_REPRESENTATION('',(#314),#506);
#517=PRODUCT_DEFINITION_CONTEXT('part definition',#522,'design');
#518=PRODUCT_DEFINITION('DCB2015-4','DCB2015-4',#519,#517);
#519=PRODUCT_DEFINITION_FORMATION('',$,#524);
#520=PRODUCT_RELATED_PRODUCT_CATEGORY('DCB2015-4','DCB2015-4',(#524));
#521=APPLICATION_PROTOCOL_DEFINITION('international standard',
'automotive_design',2009,#522);
#522=APPLICATION_CONTEXT(
'Core Data for Automotive Mechanical Design Process');
#523=PRODUCT_CONTEXT('part definition',#522,'mechanical');
#524=PRODUCT('DCB2015-4','DCB2015-4',$,(#523));
#525=PRESENTATION_STYLE_ASSIGNMENT((#526));
#526=SURFACE_STYLE_USAGE(.BOTH.,#527);
#527=SURFACE_SIDE_STYLE($,(#528));
#528=SURFACE_STYLE_FILL_AREA(#529);
#529=FILL_AREA_STYLE($,(#530));
#530=FILL_AREA_STYLE_COLOUR($,#531);
#531=COLOUR_RGB('',0.749019607843137,0.749019607843137,0.749019607843137);
ENDSEC;
END-ISO-10303-21;
