ISO-10303-21;
HEADER;
/* Generated by software containing ST-Developer
 * from STEP Tools, Inc. (www.steptools.com) 
 */

FILE_DESCRIPTION(
/* description */ (''),
/* implementation_level */ '2;1');

FILE_NAME(
/* name */ 'D:\\\X2\96F64EF6\X0\\\M4\X2\7CFB5217\X0\\\\X2\914D4EF6\X0\\\
DAL2035-4.stp',
/* time_stamp */ '2025-03-24T11:50:05+08:00',
/* author */ ('1091212-1'),
/* organization */ (''),
/* preprocessor_version */ 'ST-DEVELOPER v15.6',
/* originating_system */ 'Autodesk Inventor 2015',
/* authorisation */ '');

FILE_SCHEMA (('AUTOMOTIVE_DESIGN { 1 0 10303 214 3 1 1 }'));
ENDSEC;

DATA;
#10=MECHANICAL_DESIGN_GEOMETRIC_PRESENTATION_REPRESENTATION('',(#13),#624);
#11=SHAPE_REPRESENTATION_RELATIONSHIP('SRR','None',#633,#12);
#12=ADVANCED_BREP_SHAPE_REPRESENTATION($,(#14),#623);
#13=STYLED_ITEM('',(#642),#14);
#14=MANIFOLD_SOLID_BREP('\X2\5BE69AD4\X0\1',#372);
#15=PLANE('',#380);
#16=PLANE('',#384);
#17=PLANE('',#388);
#18=PLANE('',#393);
#19=PLANE('',#397);
#20=PLANE('',#403);
#21=PLANE('',#407);
#22=PLANE('',#408);
#23=PLANE('',#409);
#24=PLANE('',#410);
#25=LINE('',#529,#56);
#26=LINE('',#532,#57);
#27=LINE('',#535,#58);
#28=LINE('',#537,#59);
#29=LINE('',#538,#60);
#30=LINE('',#544,#61);
#31=LINE('',#546,#62);
#32=LINE('',#547,#63);
#33=LINE('',#553,#64);
#34=LINE('',#556,#65);
#35=LINE('',#559,#66);
#36=LINE('',#561,#67);
#37=LINE('',#562,#68);
#38=LINE('',#570,#69);
#39=LINE('',#573,#70);
#40=LINE('',#576,#71);
#41=LINE('',#578,#72);
#42=LINE('',#579,#73);
#43=LINE('',#585,#74);
#44=LINE('',#587,#75);
#45=LINE('',#588,#76);
#46=LINE('',#597,#77);
#47=LINE('',#600,#78);
#48=LINE('',#602,#79);
#49=LINE('',#606,#80);
#50=LINE('',#607,#81);
#51=LINE('',#611,#82);
#52=LINE('',#613,#83);
#53=LINE('',#616,#84);
#54=LINE('',#617,#85);
#55=LINE('',#619,#86);
#56=VECTOR('',#423,3.);
#57=VECTOR('',#426,3.);
#58=VECTOR('',#429,3.);
#59=VECTOR('',#430,3.);
#60=VECTOR('',#431,3.);
#61=VECTOR('',#438,3.);
#62=VECTOR('',#441,3.);
#63=VECTOR('',#442,3.);
#64=VECTOR('',#447,35.);
#65=VECTOR('',#450,35.);
#66=VECTOR('',#453,11.);
#67=VECTOR('',#454,35.);
#68=VECTOR('',#455,11.);
#69=VECTOR('',#462,3.);
#70=VECTOR('',#465,3.);
#71=VECTOR('',#468,3.);
#72=VECTOR('',#469,3.);
#73=VECTOR('',#470,3.);
#74=VECTOR('',#477,3.);
#75=VECTOR('',#480,3.);
#76=VECTOR('',#481,3.);
#77=VECTOR('',#490,35.);
#78=VECTOR('',#493,35.);
#79=VECTOR('',#496,11.);
#80=VECTOR('',#499,20.);
#81=VECTOR('',#500,20.);
#82=VECTOR('',#505,35.);
#83=VECTOR('',#508,11.);
#84=VECTOR('',#511,20.);
#85=VECTOR('',#512,35.);
#86=VECTOR('',#515,20.);
#87=FACE_BOUND('',#117,.T.);
#88=FACE_BOUND('',#124,.T.);
#89=FACE_BOUND('',#125,.T.);
#90=FACE_BOUND('',#131,.T.);
#91=FACE_BOUND('',#136,.T.);
#92=FACE_BOUND('',#137,.T.);
#93=FACE_BOUND('',#139,.T.);
#94=FACE_BOUND('',#140,.T.);
#95=FACE_BOUND('',#142,.T.);
#96=FACE_BOUND('',#143,.T.);
#97=FACE_OUTER_BOUND('',#116,.T.);
#98=FACE_OUTER_BOUND('',#118,.T.);
#99=FACE_OUTER_BOUND('',#119,.T.);
#100=FACE_OUTER_BOUND('',#120,.T.);
#101=FACE_OUTER_BOUND('',#121,.T.);
#102=FACE_OUTER_BOUND('',#122,.T.);
#103=FACE_OUTER_BOUND('',#123,.T.);
#104=FACE_OUTER_BOUND('',#126,.T.);
#105=FACE_OUTER_BOUND('',#127,.T.);
#106=FACE_OUTER_BOUND('',#128,.T.);
#107=FACE_OUTER_BOUND('',#129,.T.);
#108=FACE_OUTER_BOUND('',#130,.T.);
#109=FACE_OUTER_BOUND('',#132,.T.);
#110=FACE_OUTER_BOUND('',#133,.T.);
#111=FACE_OUTER_BOUND('',#134,.T.);
#112=FACE_OUTER_BOUND('',#135,.T.);
#113=FACE_OUTER_BOUND('',#138,.T.);
#114=FACE_OUTER_BOUND('',#141,.T.);
#115=FACE_OUTER_BOUND('',#144,.T.);
#116=EDGE_LOOP('',(#246));
#117=EDGE_LOOP('',(#247));
#118=EDGE_LOOP('',(#248,#249,#250,#251));
#119=EDGE_LOOP('',(#252,#253,#254,#255));
#120=EDGE_LOOP('',(#256,#257,#258,#259));
#121=EDGE_LOOP('',(#260,#261,#262,#263));
#122=EDGE_LOOP('',(#264,#265,#266,#267));
#123=EDGE_LOOP('',(#268,#269,#270,#271));
#124=EDGE_LOOP('',(#272));
#125=EDGE_LOOP('',(#273));
#126=EDGE_LOOP('',(#274,#275,#276,#277));
#127=EDGE_LOOP('',(#278,#279,#280,#281));
#128=EDGE_LOOP('',(#282,#283,#284,#285));
#129=EDGE_LOOP('',(#286,#287,#288,#289));
#130=EDGE_LOOP('',(#290));
#131=EDGE_LOOP('',(#291));
#132=EDGE_LOOP('',(#292,#293,#294,#295));
#133=EDGE_LOOP('',(#296,#297,#298,#299,#300,#301,#302));
#134=EDGE_LOOP('',(#303,#304,#305,#306));
#135=EDGE_LOOP('',(#307,#308,#309,#310));
#136=EDGE_LOOP('',(#311,#312,#313,#314));
#137=EDGE_LOOP('',(#315,#316,#317,#318));
#138=EDGE_LOOP('',(#319,#320,#321,#322));
#139=EDGE_LOOP('',(#323));
#140=EDGE_LOOP('',(#324));
#141=EDGE_LOOP('',(#325,#326,#327,#328));
#142=EDGE_LOOP('',(#329,#330,#331,#332));
#143=EDGE_LOOP('',(#333,#334,#335,#336));
#144=EDGE_LOOP('',(#337,#338,#339,#340,#341,#342,#343));
#145=CIRCLE('',#375,2.25);
#146=CIRCLE('',#376,2.25);
#147=CIRCLE('',#378,2.25);
#148=CIRCLE('',#379,2.25);
#149=CIRCLE('',#382,2.25);
#150=CIRCLE('',#383,2.25);
#151=CIRCLE('',#386,3.);
#152=CIRCLE('',#387,3.);
#153=CIRCLE('',#389,2.25);
#154=CIRCLE('',#391,2.25);
#155=CIRCLE('',#392,2.25);
#156=CIRCLE('',#395,2.25);
#157=CIRCLE('',#396,2.25);
#158=CIRCLE('',#399,2.25);
#159=CIRCLE('',#401,3.);
#160=CIRCLE('',#402,3.);
#161=CIRCLE('',#404,3.);
#162=CIRCLE('',#406,3.);
#163=VERTEX_POINT('',#520);
#164=VERTEX_POINT('',#522);
#165=VERTEX_POINT('',#525);
#166=VERTEX_POINT('',#526);
#167=VERTEX_POINT('',#528);
#168=VERTEX_POINT('',#530);
#169=VERTEX_POINT('',#534);
#170=VERTEX_POINT('',#536);
#171=VERTEX_POINT('',#540);
#172=VERTEX_POINT('',#542);
#173=VERTEX_POINT('',#549);
#174=VERTEX_POINT('',#550);
#175=VERTEX_POINT('',#552);
#176=VERTEX_POINT('',#554);
#177=VERTEX_POINT('',#558);
#178=VERTEX_POINT('',#560);
#179=VERTEX_POINT('',#563);
#180=VERTEX_POINT('',#566);
#181=VERTEX_POINT('',#567);
#182=VERTEX_POINT('',#569);
#183=VERTEX_POINT('',#571);
#184=VERTEX_POINT('',#575);
#185=VERTEX_POINT('',#577);
#186=VERTEX_POINT('',#581);
#187=VERTEX_POINT('',#583);
#188=VERTEX_POINT('',#590);
#189=VERTEX_POINT('',#593);
#190=VERTEX_POINT('',#594);
#191=VERTEX_POINT('',#596);
#192=VERTEX_POINT('',#598);
#193=VERTEX_POINT('',#603);
#194=VERTEX_POINT('',#605);
#195=VERTEX_POINT('',#609);
#196=VERTEX_POINT('',#615);
#197=EDGE_CURVE('',#163,#163,#145,.T.);
#198=EDGE_CURVE('',#164,#164,#146,.T.);
#199=EDGE_CURVE('',#165,#166,#147,.T.);
#200=EDGE_CURVE('',#167,#165,#25,.T.);
#201=EDGE_CURVE('',#168,#167,#148,.T.);
#202=EDGE_CURVE('',#168,#166,#26,.T.);
#203=EDGE_CURVE('',#166,#169,#27,.T.);
#204=EDGE_CURVE('',#170,#168,#28,.T.);
#205=EDGE_CURVE('',#170,#169,#29,.T.);
#206=EDGE_CURVE('',#169,#171,#149,.T.);
#207=EDGE_CURVE('',#172,#170,#150,.T.);
#208=EDGE_CURVE('',#172,#171,#30,.T.);
#209=EDGE_CURVE('',#171,#165,#31,.T.);
#210=EDGE_CURVE('',#167,#172,#32,.T.);
#211=EDGE_CURVE('',#173,#174,#151,.T.);
#212=EDGE_CURVE('',#174,#175,#33,.T.);
#213=EDGE_CURVE('',#175,#176,#152,.T.);
#214=EDGE_CURVE('',#176,#173,#34,.T.);
#215=EDGE_CURVE('',#177,#174,#35,.T.);
#216=EDGE_CURVE('',#178,#177,#36,.T.);
#217=EDGE_CURVE('',#175,#178,#37,.T.);
#218=EDGE_CURVE('',#179,#179,#153,.T.);
#219=EDGE_CURVE('',#180,#181,#154,.T.);
#220=EDGE_CURVE('',#182,#180,#38,.T.);
#221=EDGE_CURVE('',#183,#182,#155,.T.);
#222=EDGE_CURVE('',#183,#181,#39,.T.);
#223=EDGE_CURVE('',#181,#184,#40,.T.);
#224=EDGE_CURVE('',#185,#183,#41,.T.);
#225=EDGE_CURVE('',#185,#184,#42,.T.);
#226=EDGE_CURVE('',#184,#186,#156,.T.);
#227=EDGE_CURVE('',#187,#185,#157,.T.);
#228=EDGE_CURVE('',#187,#186,#43,.T.);
#229=EDGE_CURVE('',#186,#180,#44,.T.);
#230=EDGE_CURVE('',#182,#187,#45,.T.);
#231=EDGE_CURVE('',#188,#188,#158,.T.);
#232=EDGE_CURVE('',#189,#190,#159,.T.);
#233=EDGE_CURVE('',#191,#190,#46,.T.);
#234=EDGE_CURVE('',#191,#192,#160,.T.);
#235=EDGE_CURVE('',#192,#189,#47,.T.);
#236=EDGE_CURVE('',#189,#176,#48,.T.);
#237=EDGE_CURVE('',#193,#178,#161,.T.);
#238=EDGE_CURVE('',#193,#194,#49,.T.);
#239=EDGE_CURVE('',#194,#190,#50,.T.);
#240=EDGE_CURVE('',#177,#195,#162,.T.);
#241=EDGE_CURVE('',#195,#193,#51,.T.);
#242=EDGE_CURVE('',#173,#192,#52,.T.);
#243=EDGE_CURVE('',#196,#195,#53,.T.);
#244=EDGE_CURVE('',#194,#196,#54,.T.);
#245=EDGE_CURVE('',#191,#196,#55,.T.);
#246=ORIENTED_EDGE('',*,*,#197,.F.);
#247=ORIENTED_EDGE('',*,*,#198,.F.);
#248=ORIENTED_EDGE('',*,*,#199,.F.);
#249=ORIENTED_EDGE('',*,*,#200,.F.);
#250=ORIENTED_EDGE('',*,*,#201,.F.);
#251=ORIENTED_EDGE('',*,*,#202,.T.);
#252=ORIENTED_EDGE('',*,*,#203,.F.);
#253=ORIENTED_EDGE('',*,*,#202,.F.);
#254=ORIENTED_EDGE('',*,*,#204,.F.);
#255=ORIENTED_EDGE('',*,*,#205,.T.);
#256=ORIENTED_EDGE('',*,*,#206,.F.);
#257=ORIENTED_EDGE('',*,*,#205,.F.);
#258=ORIENTED_EDGE('',*,*,#207,.F.);
#259=ORIENTED_EDGE('',*,*,#208,.T.);
#260=ORIENTED_EDGE('',*,*,#209,.F.);
#261=ORIENTED_EDGE('',*,*,#208,.F.);
#262=ORIENTED_EDGE('',*,*,#210,.F.);
#263=ORIENTED_EDGE('',*,*,#200,.T.);
#264=ORIENTED_EDGE('',*,*,#211,.T.);
#265=ORIENTED_EDGE('',*,*,#212,.T.);
#266=ORIENTED_EDGE('',*,*,#213,.T.);
#267=ORIENTED_EDGE('',*,*,#214,.T.);
#268=ORIENTED_EDGE('',*,*,#212,.F.);
#269=ORIENTED_EDGE('',*,*,#215,.F.);
#270=ORIENTED_EDGE('',*,*,#216,.F.);
#271=ORIENTED_EDGE('',*,*,#217,.F.);
#272=ORIENTED_EDGE('',*,*,#198,.T.);
#273=ORIENTED_EDGE('',*,*,#218,.T.);
#274=ORIENTED_EDGE('',*,*,#219,.F.);
#275=ORIENTED_EDGE('',*,*,#220,.F.);
#276=ORIENTED_EDGE('',*,*,#221,.F.);
#277=ORIENTED_EDGE('',*,*,#222,.T.);
#278=ORIENTED_EDGE('',*,*,#223,.F.);
#279=ORIENTED_EDGE('',*,*,#222,.F.);
#280=ORIENTED_EDGE('',*,*,#224,.F.);
#281=ORIENTED_EDGE('',*,*,#225,.T.);
#282=ORIENTED_EDGE('',*,*,#226,.F.);
#283=ORIENTED_EDGE('',*,*,#225,.F.);
#284=ORIENTED_EDGE('',*,*,#227,.F.);
#285=ORIENTED_EDGE('',*,*,#228,.T.);
#286=ORIENTED_EDGE('',*,*,#229,.F.);
#287=ORIENTED_EDGE('',*,*,#228,.F.);
#288=ORIENTED_EDGE('',*,*,#230,.F.);
#289=ORIENTED_EDGE('',*,*,#220,.T.);
#290=ORIENTED_EDGE('',*,*,#231,.F.);
#291=ORIENTED_EDGE('',*,*,#218,.F.);
#292=ORIENTED_EDGE('',*,*,#232,.T.);
#293=ORIENTED_EDGE('',*,*,#233,.F.);
#294=ORIENTED_EDGE('',*,*,#234,.T.);
#295=ORIENTED_EDGE('',*,*,#235,.T.);
#296=ORIENTED_EDGE('',*,*,#232,.F.);
#297=ORIENTED_EDGE('',*,*,#236,.T.);
#298=ORIENTED_EDGE('',*,*,#213,.F.);
#299=ORIENTED_EDGE('',*,*,#217,.T.);
#300=ORIENTED_EDGE('',*,*,#237,.F.);
#301=ORIENTED_EDGE('',*,*,#238,.T.);
#302=ORIENTED_EDGE('',*,*,#239,.T.);
#303=ORIENTED_EDGE('',*,*,#237,.T.);
#304=ORIENTED_EDGE('',*,*,#216,.T.);
#305=ORIENTED_EDGE('',*,*,#240,.T.);
#306=ORIENTED_EDGE('',*,*,#241,.T.);
#307=ORIENTED_EDGE('',*,*,#214,.F.);
#308=ORIENTED_EDGE('',*,*,#236,.F.);
#309=ORIENTED_EDGE('',*,*,#235,.F.);
#310=ORIENTED_EDGE('',*,*,#242,.F.);
#311=ORIENTED_EDGE('',*,*,#207,.T.);
#312=ORIENTED_EDGE('',*,*,#204,.T.);
#313=ORIENTED_EDGE('',*,*,#201,.T.);
#314=ORIENTED_EDGE('',*,*,#210,.T.);
#315=ORIENTED_EDGE('',*,*,#227,.T.);
#316=ORIENTED_EDGE('',*,*,#224,.T.);
#317=ORIENTED_EDGE('',*,*,#221,.T.);
#318=ORIENTED_EDGE('',*,*,#230,.T.);
#319=ORIENTED_EDGE('',*,*,#241,.F.);
#320=ORIENTED_EDGE('',*,*,#243,.F.);
#321=ORIENTED_EDGE('',*,*,#244,.F.);
#322=ORIENTED_EDGE('',*,*,#238,.F.);
#323=ORIENTED_EDGE('',*,*,#197,.T.);
#324=ORIENTED_EDGE('',*,*,#231,.T.);
#325=ORIENTED_EDGE('',*,*,#244,.T.);
#326=ORIENTED_EDGE('',*,*,#245,.F.);
#327=ORIENTED_EDGE('',*,*,#233,.T.);
#328=ORIENTED_EDGE('',*,*,#239,.F.);
#329=ORIENTED_EDGE('',*,*,#206,.T.);
#330=ORIENTED_EDGE('',*,*,#209,.T.);
#331=ORIENTED_EDGE('',*,*,#199,.T.);
#332=ORIENTED_EDGE('',*,*,#203,.T.);
#333=ORIENTED_EDGE('',*,*,#226,.T.);
#334=ORIENTED_EDGE('',*,*,#229,.T.);
#335=ORIENTED_EDGE('',*,*,#219,.T.);
#336=ORIENTED_EDGE('',*,*,#223,.T.);
#337=ORIENTED_EDGE('',*,*,#234,.F.);
#338=ORIENTED_EDGE('',*,*,#245,.T.);
#339=ORIENTED_EDGE('',*,*,#243,.T.);
#340=ORIENTED_EDGE('',*,*,#240,.F.);
#341=ORIENTED_EDGE('',*,*,#215,.T.);
#342=ORIENTED_EDGE('',*,*,#211,.F.);
#343=ORIENTED_EDGE('',*,*,#242,.T.);
#344=CYLINDRICAL_SURFACE('',#374,2.25);
#345=CYLINDRICAL_SURFACE('',#377,2.25);
#346=CYLINDRICAL_SURFACE('',#381,2.25);
#347=CYLINDRICAL_SURFACE('',#385,3.);
#348=CYLINDRICAL_SURFACE('',#390,2.25);
#349=CYLINDRICAL_SURFACE('',#394,2.25);
#350=CYLINDRICAL_SURFACE('',#398,2.25);
#351=CYLINDRICAL_SURFACE('',#400,3.);
#352=CYLINDRICAL_SURFACE('',#405,3.);
#353=ADVANCED_FACE('',(#97,#87),#344,.F.);
#354=ADVANCED_FACE('',(#98),#345,.F.);
#355=ADVANCED_FACE('',(#99),#15,.T.);
#356=ADVANCED_FACE('',(#100),#346,.F.);
#357=ADVANCED_FACE('',(#101),#16,.T.);
#358=ADVANCED_FACE('',(#102),#347,.F.);
#359=ADVANCED_FACE('',(#103,#88,#89),#17,.T.);
#360=ADVANCED_FACE('',(#104),#348,.F.);
#361=ADVANCED_FACE('',(#105),#18,.F.);
#362=ADVANCED_FACE('',(#106),#349,.F.);
#363=ADVANCED_FACE('',(#107),#19,.F.);
#364=ADVANCED_FACE('',(#108,#90),#350,.F.);
#365=ADVANCED_FACE('',(#109),#351,.T.);
#366=ADVANCED_FACE('',(#110),#20,.T.);
#367=ADVANCED_FACE('',(#111),#352,.T.);
#368=ADVANCED_FACE('',(#112,#91,#92),#21,.T.);
#369=ADVANCED_FACE('',(#113,#93,#94),#22,.T.);
#370=ADVANCED_FACE('',(#114,#95,#96),#23,.T.);
#371=ADVANCED_FACE('',(#115),#24,.T.);
#372=CLOSED_SHELL('',(#353,#354,#355,#356,#357,#358,#359,#360,#361,#362,
#363,#364,#365,#366,#367,#368,#369,#370,#371));
#373=AXIS2_PLACEMENT_3D('placement',#518,#411,#412);
#374=AXIS2_PLACEMENT_3D('',#519,#413,#414);
#375=AXIS2_PLACEMENT_3D('',#521,#415,#416);
#376=AXIS2_PLACEMENT_3D('',#523,#417,#418);
#377=AXIS2_PLACEMENT_3D('',#524,#419,#420);
#378=AXIS2_PLACEMENT_3D('',#527,#421,#422);
#379=AXIS2_PLACEMENT_3D('',#531,#424,#425);
#380=AXIS2_PLACEMENT_3D('',#533,#427,#428);
#381=AXIS2_PLACEMENT_3D('',#539,#432,#433);
#382=AXIS2_PLACEMENT_3D('',#541,#434,#435);
#383=AXIS2_PLACEMENT_3D('',#543,#436,#437);
#384=AXIS2_PLACEMENT_3D('',#545,#439,#440);
#385=AXIS2_PLACEMENT_3D('',#548,#443,#444);
#386=AXIS2_PLACEMENT_3D('',#551,#445,#446);
#387=AXIS2_PLACEMENT_3D('',#555,#448,#449);
#388=AXIS2_PLACEMENT_3D('',#557,#451,#452);
#389=AXIS2_PLACEMENT_3D('',#564,#456,#457);
#390=AXIS2_PLACEMENT_3D('',#565,#458,#459);
#391=AXIS2_PLACEMENT_3D('',#568,#460,#461);
#392=AXIS2_PLACEMENT_3D('',#572,#463,#464);
#393=AXIS2_PLACEMENT_3D('',#574,#466,#467);
#394=AXIS2_PLACEMENT_3D('',#580,#471,#472);
#395=AXIS2_PLACEMENT_3D('',#582,#473,#474);
#396=AXIS2_PLACEMENT_3D('',#584,#475,#476);
#397=AXIS2_PLACEMENT_3D('',#586,#478,#479);
#398=AXIS2_PLACEMENT_3D('',#589,#482,#483);
#399=AXIS2_PLACEMENT_3D('',#591,#484,#485);
#400=AXIS2_PLACEMENT_3D('',#592,#486,#487);
#401=AXIS2_PLACEMENT_3D('',#595,#488,#489);
#402=AXIS2_PLACEMENT_3D('',#599,#491,#492);
#403=AXIS2_PLACEMENT_3D('',#601,#494,#495);
#404=AXIS2_PLACEMENT_3D('',#604,#497,#498);
#405=AXIS2_PLACEMENT_3D('',#608,#501,#502);
#406=AXIS2_PLACEMENT_3D('',#610,#503,#504);
#407=AXIS2_PLACEMENT_3D('',#612,#506,#507);
#408=AXIS2_PLACEMENT_3D('',#614,#509,#510);
#409=AXIS2_PLACEMENT_3D('',#618,#513,#514);
#410=AXIS2_PLACEMENT_3D('',#620,#516,#517);
#411=DIRECTION('axis',(0.,0.,1.));
#412=DIRECTION('refdir',(1.,0.,0.));
#413=DIRECTION('center_axis',(-1.48029736616688E-16,1.,0.));
#414=DIRECTION('ref_axis',(-1.,-1.48029736616688E-16,0.));
#415=DIRECTION('center_axis',(0.,1.,0.));
#416=DIRECTION('ref_axis',(-1.,-1.48029736616688E-16,0.));
#417=DIRECTION('center_axis',(1.95921710227969E-16,-1.,0.));
#418=DIRECTION('ref_axis',(-1.,-1.48029736616688E-16,0.));
#419=DIRECTION('center_axis',(1.,1.48029736616688E-16,0.));
#420=DIRECTION('ref_axis',(2.19128029228058E-31,-1.48029736616687E-15,1.));
#421=DIRECTION('center_axis',(1.,0.,0.));
#422=DIRECTION('ref_axis',(2.19128029228058E-31,-1.48029736616687E-15,1.));
#423=DIRECTION('',(-1.,-1.48029736616688E-16,0.));
#424=DIRECTION('center_axis',(-1.,-1.30614473485313E-16,0.));
#425=DIRECTION('ref_axis',(2.19128029228058E-31,-1.48029736616687E-15,1.));
#426=DIRECTION('',(-1.,-1.48029736616688E-16,0.));
#427=DIRECTION('center_axis',(-2.19128029228059E-31,1.48029736616688E-15,
-1.));
#428=DIRECTION('ref_axis',(1.33226762955019E-16,-1.,-1.50990331349021E-15));
#429=DIRECTION('',(0.,-1.,-1.48029736616688E-15));
#430=DIRECTION('',(-1.30614473485313E-16,1.,1.48029736616688E-15));
#431=DIRECTION('',(-1.,-1.48029736616688E-16,0.));
#432=DIRECTION('center_axis',(1.,1.48029736616688E-16,0.));
#433=DIRECTION('ref_axis',(-2.19128029228058E-31,1.48029736616687E-15,-1.));
#434=DIRECTION('center_axis',(1.,0.,0.));
#435=DIRECTION('ref_axis',(-2.19128029228058E-31,1.48029736616687E-15,-1.));
#436=DIRECTION('center_axis',(-1.,-1.30614473485313E-16,0.));
#437=DIRECTION('ref_axis',(-2.19128029228058E-31,1.48029736616687E-15,-1.));
#438=DIRECTION('',(-1.,-1.48029736616688E-16,0.));
#439=DIRECTION('center_axis',(2.19128029228059E-31,-1.48029736616688E-15,
1.));
#440=DIRECTION('ref_axis',(-1.33226762955019E-16,1.,1.4210854715202E-15));
#441=DIRECTION('',(0.,1.,1.48029736616688E-15));
#442=DIRECTION('',(1.30614473485313E-16,-1.,-1.48029736616688E-15));
#443=DIRECTION('center_axis',(0.,0.,-1.));
#444=DIRECTION('ref_axis',(-0.707106781186547,-0.707106781186548,0.));
#445=DIRECTION('center_axis',(0.,0.,1.));
#446=DIRECTION('ref_axis',(-0.707106781186547,-0.707106781186548,0.));
#447=DIRECTION('',(0.,0.,-1.));
#448=DIRECTION('center_axis',(0.,0.,-1.));
#449=DIRECTION('ref_axis',(-0.707106781186547,-0.707106781186548,0.));
#450=DIRECTION('',(0.,0.,1.));
#451=DIRECTION('center_axis',(-1.95921710227969E-16,1.,0.));
#452=DIRECTION('ref_axis',(-1.,-1.77635683940025E-16,0.));
#453=DIRECTION('',(-1.,-1.95921710227969E-16,0.));
#454=DIRECTION('',(0.,0.,1.));
#455=DIRECTION('',(1.,1.95921710227969E-16,0.));
#456=DIRECTION('center_axis',(1.95921710227969E-16,-1.,0.));
#457=DIRECTION('ref_axis',(-1.,-1.48029736616688E-16,0.));
#458=DIRECTION('center_axis',(-1.,-1.48029736616688E-16,0.));
#459=DIRECTION('ref_axis',(2.19128029228058E-31,-1.48029736616687E-15,-1.));
#460=DIRECTION('center_axis',(1.,0.,0.));
#461=DIRECTION('ref_axis',(2.19128029228058E-31,-1.48029736616687E-15,-1.));
#462=DIRECTION('',(-1.,-1.48029736616688E-16,0.));
#463=DIRECTION('center_axis',(-1.,-1.30614473485313E-16,0.));
#464=DIRECTION('ref_axis',(2.19128029228058E-31,-1.48029736616687E-15,-1.));
#465=DIRECTION('',(-1.,-1.48029736616688E-16,0.));
#466=DIRECTION('center_axis',(-2.19128029228059E-31,1.48029736616688E-15,
1.));
#467=DIRECTION('ref_axis',(-1.33226762955019E-16,1.,-1.4210854715202E-15));
#468=DIRECTION('',(0.,-1.,1.48029736616688E-15));
#469=DIRECTION('',(-1.30614473485313E-16,1.,-1.48029736616688E-15));
#470=DIRECTION('',(-1.,-1.48029736616688E-16,0.));
#471=DIRECTION('center_axis',(-1.,-1.48029736616688E-16,0.));
#472=DIRECTION('ref_axis',(-2.19128029228058E-31,1.48029736616687E-15,1.));
#473=DIRECTION('center_axis',(1.,0.,0.));
#474=DIRECTION('ref_axis',(-2.19128029228058E-31,1.48029736616687E-15,1.));
#475=DIRECTION('center_axis',(-1.,-1.30614473485313E-16,0.));
#476=DIRECTION('ref_axis',(-2.19128029228058E-31,1.48029736616687E-15,1.));
#477=DIRECTION('',(-1.,-1.48029736616688E-16,0.));
#478=DIRECTION('center_axis',(2.19128029228059E-31,-1.48029736616688E-15,
-1.));
#479=DIRECTION('ref_axis',(1.33226762955019E-16,-1.,1.50990331349021E-15));
#480=DIRECTION('',(0.,1.,-1.48029736616688E-15));
#481=DIRECTION('',(1.30614473485313E-16,-1.,1.48029736616688E-15));
#482=DIRECTION('center_axis',(1.48029736616688E-16,-1.,0.));
#483=DIRECTION('ref_axis',(-1.,-1.48029736616688E-16,0.));
#484=DIRECTION('center_axis',(0.,1.,0.));
#485=DIRECTION('ref_axis',(-1.,-1.48029736616688E-16,0.));
#486=DIRECTION('center_axis',(0.,0.,-1.));
#487=DIRECTION('ref_axis',(0.707106781186547,0.707106781186548,0.));
#488=DIRECTION('center_axis',(0.,0.,1.));
#489=DIRECTION('ref_axis',(0.707106781186547,0.707106781186548,0.));
#490=DIRECTION('',(0.,0.,-1.));
#491=DIRECTION('center_axis',(0.,0.,-1.));
#492=DIRECTION('ref_axis',(0.707106781186547,0.707106781186548,0.));
#493=DIRECTION('',(0.,0.,-1.));
#494=DIRECTION('center_axis',(0.,0.,-1.));
#495=DIRECTION('ref_axis',(-1.,0.,0.));
#496=DIRECTION('',(1.30614473485313E-16,-1.,0.));
#497=DIRECTION('center_axis',(0.,0.,1.));
#498=DIRECTION('ref_axis',(0.707106781186547,0.707106781186547,0.));
#499=DIRECTION('',(-1.,0.,0.));
#500=DIRECTION('',(0.,1.,0.));
#501=DIRECTION('center_axis',(0.,0.,-1.));
#502=DIRECTION('ref_axis',(0.707106781186547,0.707106781186547,0.));
#503=DIRECTION('center_axis',(0.,0.,-1.));
#504=DIRECTION('ref_axis',(0.707106781186547,0.707106781186547,0.));
#505=DIRECTION('',(0.,0.,-1.));
#506=DIRECTION('center_axis',(1.,1.30614473485313E-16,0.));
#507=DIRECTION('ref_axis',(-1.33226762955019E-16,1.,0.));
#508=DIRECTION('',(-1.30614473485313E-16,1.,0.));
#509=DIRECTION('center_axis',(0.,-1.,0.));
#510=DIRECTION('ref_axis',(1.,0.,0.));
#511=DIRECTION('',(1.,0.,0.));
#512=DIRECTION('',(0.,0.,1.));
#513=DIRECTION('center_axis',(-1.,0.,0.));
#514=DIRECTION('ref_axis',(0.,-1.,0.));
#515=DIRECTION('',(0.,-1.,0.));
#516=DIRECTION('center_axis',(0.,0.,1.));
#517=DIRECTION('ref_axis',(1.,0.,0.));
#518=CARTESIAN_POINT('',(0.,0.,0.));
#519=CARTESIAN_POINT('Origin',(13.,3.,-10.));
#520=CARTESIAN_POINT('',(15.25,1.99840144432528E-15,-10.));
#521=CARTESIAN_POINT('Origin',(13.,1.66533453693773E-15,-10.));
#522=CARTESIAN_POINT('',(15.25,3.00000000000001,-10.));
#523=CARTESIAN_POINT('Origin',(13.,3.,-10.));
#524=CARTESIAN_POINT('Origin',(3.,13.,-10.));
#525=CARTESIAN_POINT('',(0.,13.,-12.25));
#526=CARTESIAN_POINT('',(0.,13.,-7.74999999999999));
#527=CARTESIAN_POINT('Origin',(1.11022302462516E-15,13.,-10.));
#528=CARTESIAN_POINT('',(3.,13.,-12.25));
#529=CARTESIAN_POINT('',(3.,13.,-12.25));
#530=CARTESIAN_POINT('',(3.,13.,-7.74999999999999));
#531=CARTESIAN_POINT('Origin',(3.,13.,-10.));
#532=CARTESIAN_POINT('',(3.,13.,-7.74999999999999));
#533=CARTESIAN_POINT('Origin',(3.,13.,-7.74999999999999));
#534=CARTESIAN_POINT('',(0.,10.,-7.75));
#535=CARTESIAN_POINT('',(0.,16.5,-7.74999999999999));
#536=CARTESIAN_POINT('',(3.,10.,-7.75));
#537=CARTESIAN_POINT('',(3.,8.00000000000001,-7.75));
#538=CARTESIAN_POINT('',(3.,10.,-7.75));
#539=CARTESIAN_POINT('Origin',(3.,10.,-10.));
#540=CARTESIAN_POINT('',(0.,10.,-12.25));
#541=CARTESIAN_POINT('Origin',(1.66533453693773E-15,10.,-10.));
#542=CARTESIAN_POINT('',(3.,10.,-12.25));
#543=CARTESIAN_POINT('Origin',(3.,10.,-10.));
#544=CARTESIAN_POINT('',(3.,10.,-12.25));
#545=CARTESIAN_POINT('Origin',(3.,10.,-12.25));
#546=CARTESIAN_POINT('',(0.,15.,-12.25));
#547=CARTESIAN_POINT('',(3.,6.50000000000001,-12.25));
#548=CARTESIAN_POINT('Origin',(6.,6.,0.));
#549=CARTESIAN_POINT('',(3.,6.,17.5));
#550=CARTESIAN_POINT('',(6.,3.,17.5));
#551=CARTESIAN_POINT('Origin',(6.,6.,17.5));
#552=CARTESIAN_POINT('',(6.,3.,-17.5));
#553=CARTESIAN_POINT('',(6.,3.,0.));
#554=CARTESIAN_POINT('',(3.,6.,-17.5));
#555=CARTESIAN_POINT('Origin',(6.,6.,-17.5));
#556=CARTESIAN_POINT('',(3.,6.,0.));
#557=CARTESIAN_POINT('Origin',(20.,3.00000000000001,0.));
#558=CARTESIAN_POINT('',(17.,3.00000000000001,17.5));
#559=CARTESIAN_POINT('',(3.,3.,17.5));
#560=CARTESIAN_POINT('',(17.,3.00000000000001,-17.5));
#561=CARTESIAN_POINT('',(17.,3.00000000000001,0.));
#562=CARTESIAN_POINT('',(3.,3.,-17.5));
#563=CARTESIAN_POINT('',(15.25,3.00000000000001,10.));
#564=CARTESIAN_POINT('Origin',(13.,3.,10.));
#565=CARTESIAN_POINT('Origin',(3.,13.,10.));
#566=CARTESIAN_POINT('',(0.,13.,7.74999999999999));
#567=CARTESIAN_POINT('',(0.,13.,12.25));
#568=CARTESIAN_POINT('Origin',(1.11022302462516E-15,13.,10.));
#569=CARTESIAN_POINT('',(3.,13.,7.74999999999999));
#570=CARTESIAN_POINT('',(3.,13.,7.74999999999999));
#571=CARTESIAN_POINT('',(3.,13.,12.25));
#572=CARTESIAN_POINT('Origin',(3.,13.,10.));
#573=CARTESIAN_POINT('',(3.,13.,12.25));
#574=CARTESIAN_POINT('Origin',(3.,10.,12.25));
#575=CARTESIAN_POINT('',(0.,10.,12.25));
#576=CARTESIAN_POINT('',(0.,15.,12.25));
#577=CARTESIAN_POINT('',(3.,10.,12.25));
#578=CARTESIAN_POINT('',(3.,6.50000000000001,12.25));
#579=CARTESIAN_POINT('',(3.,10.,12.25));
#580=CARTESIAN_POINT('Origin',(3.,10.,10.));
#581=CARTESIAN_POINT('',(0.,10.,7.75));
#582=CARTESIAN_POINT('Origin',(1.66533453693773E-15,10.,10.));
#583=CARTESIAN_POINT('',(3.,10.,7.75));
#584=CARTESIAN_POINT('Origin',(3.,10.,10.));
#585=CARTESIAN_POINT('',(3.,10.,7.75));
#586=CARTESIAN_POINT('Origin',(3.,13.,7.74999999999999));
#587=CARTESIAN_POINT('',(0.,16.5,7.74999999999999));
#588=CARTESIAN_POINT('',(3.,8.00000000000001,7.75));
#589=CARTESIAN_POINT('Origin',(13.,3.,10.));
#590=CARTESIAN_POINT('',(15.25,1.99840144432528E-15,10.));
#591=CARTESIAN_POINT('Origin',(13.,1.66533453693773E-15,10.));
#592=CARTESIAN_POINT('Origin',(-8.32667268468867E-16,17.,0.));
#593=CARTESIAN_POINT('',(3.,17.,-17.5));
#594=CARTESIAN_POINT('',(0.,20.,-17.5));
#595=CARTESIAN_POINT('Origin',(-8.32667268468867E-16,17.,-17.5));
#596=CARTESIAN_POINT('',(0.,20.,17.5));
#597=CARTESIAN_POINT('',(0.,20.,0.));
#598=CARTESIAN_POINT('',(3.,17.,17.5));
#599=CARTESIAN_POINT('Origin',(-8.32667268468867E-16,17.,17.5));
#600=CARTESIAN_POINT('',(3.,17.,0.));
#601=CARTESIAN_POINT('Origin',(6.3875,6.3875,-17.5));
#602=CARTESIAN_POINT('',(3.,20.,-17.5));
#603=CARTESIAN_POINT('',(20.,0.,-17.5));
#604=CARTESIAN_POINT('Origin',(17.,4.96334999244188E-15,-17.5));
#605=CARTESIAN_POINT('',(0.,0.,-17.5));
#606=CARTESIAN_POINT('',(20.,0.,-17.5));
#607=CARTESIAN_POINT('',(0.,0.,-17.5));
#608=CARTESIAN_POINT('Origin',(17.,4.96334999244188E-15,0.));
#609=CARTESIAN_POINT('',(20.,0.,17.5));
#610=CARTESIAN_POINT('Origin',(17.,4.96334999244188E-15,17.5));
#611=CARTESIAN_POINT('',(20.,0.,0.));
#612=CARTESIAN_POINT('Origin',(3.,3.,0.));
#613=CARTESIAN_POINT('',(3.,20.,17.5));
#614=CARTESIAN_POINT('Origin',(0.,0.,0.));
#615=CARTESIAN_POINT('',(0.,0.,17.5));
#616=CARTESIAN_POINT('',(20.,0.,17.5));
#617=CARTESIAN_POINT('',(0.,0.,0.));
#618=CARTESIAN_POINT('Origin',(0.,20.,0.));
#619=CARTESIAN_POINT('',(0.,0.,17.5));
#620=CARTESIAN_POINT('Origin',(6.3875,6.3875,17.5));
#621=UNCERTAINTY_MEASURE_WITH_UNIT(LENGTH_MEASURE(0.01),#625,
'DISTANCE_ACCURACY_VALUE',
'Maximum model space distance between geometric entities at asserted c
onnectivities');
#622=UNCERTAINTY_MEASURE_WITH_UNIT(LENGTH_MEASURE(1.E-6),#625,
'DISTANCE_ACCURACY_VALUE',
'Maximum model space distance between geometric entities at asserted c
onnectivities');
#623=(
GEOMETRIC_REPRESENTATION_CONTEXT(3)
GLOBAL_UNCERTAINTY_ASSIGNED_CONTEXT((#621))
GLOBAL_UNIT_ASSIGNED_CONTEXT((#625,#628,#626))
REPRESENTATION_CONTEXT('','3D')
);
#624=(
GEOMETRIC_REPRESENTATION_CONTEXT(3)
GLOBAL_UNCERTAINTY_ASSIGNED_CONTEXT((#622))
GLOBAL_UNIT_ASSIGNED_CONTEXT((#625,#628,#626))
REPRESENTATION_CONTEXT('','3D')
);
#625=(
LENGTH_UNIT()
NAMED_UNIT(*)
SI_UNIT(.MILLI.,.METRE.)
);
#626=(
NAMED_UNIT(*)
SI_UNIT($,.STERADIAN.)
SOLID_ANGLE_UNIT()
);
#627=DIMENSIONAL_EXPONENTS(0.,0.,0.,0.,0.,0.,0.);
#628=(
CONVERSION_BASED_UNIT('degree',#630)
NAMED_UNIT(#627)
PLANE_ANGLE_UNIT()
);
#629=(
NAMED_UNIT(*)
PLANE_ANGLE_UNIT()
SI_UNIT($,.RADIAN.)
);
#630=PLANE_ANGLE_MEASURE_WITH_UNIT(PLANE_ANGLE_MEASURE(0.01745329252),#629);
#631=SHAPE_DEFINITION_REPRESENTATION(#632,#633);
#632=PRODUCT_DEFINITION_SHAPE('',$,#635);
#633=SHAPE_REPRESENTATION('',(#373),#623);
#634=PRODUCT_DEFINITION_CONTEXT('part definition',#639,'design');
#635=PRODUCT_DEFINITION('DAL2035-4','DAL2035-4',#636,#634);
#636=PRODUCT_DEFINITION_FORMATION('',$,#641);
#637=PRODUCT_RELATED_PRODUCT_CATEGORY('DAL2035-4','DAL2035-4',(#641));
#638=APPLICATION_PROTOCOL_DEFINITION('international standard',
'automotive_design',2009,#639);
#639=APPLICATION_CONTEXT(
'Core Data for Automotive Mechanical Design Process');
#640=PRODUCT_CONTEXT('part definition',#639,'mechanical');
#641=PRODUCT('DAL2035-4','DAL2035-4',$,(#640));
#642=PRESENTATION_STYLE_ASSIGNMENT((#643));
#643=SURFACE_STYLE_USAGE(.BOTH.,#644);
#644=SURFACE_SIDE_STYLE($,(#645));
#645=SURFACE_STYLE_FILL_AREA(#646);
#646=FILL_AREA_STYLE($,(#647));
#647=FILL_AREA_STYLE_COLOUR($,#648);
#648=COLOUR_RGB('',0.749019607843137,0.749019607843137,0.749019607843137);
ENDSEC;
END-ISO-10303-21;
