ISO-10303-21;
HEADER;
/* Generated by software containing ST-Developer
 * from STEP Tools, Inc. (www.steptools.com) 
 */

FILE_DESCRIPTION(
/* description */ (''),
/* implementation_level */ '2;1');

FILE_NAME(
/* name */ 'D:\\\X2\96F64EF6\X0\\\M4\X2\7CFB5217\X0\\\\X2\914D4EF6\X0\\\
DAL2015-4.stp',
/* time_stamp */ '2025-03-24T11:49:44+08:00',
/* author */ ('1091212-1'),
/* organization */ (''),
/* preprocessor_version */ 'ST-DEVELOPER v15.6',
/* originating_system */ 'Autodesk Inventor 2015',
/* authorisation */ '');

FILE_SCHEMA (('AUTOMOTIVE_DESIGN { 1 0 10303 214 3 1 1 }'));
ENDSEC;

DATA;
#10=MECHANICAL_DESIGN_GEOMETRIC_PRESENTATION_REPRESENTATION('',(#13),#450);
#11=SHAPE_REPRESENTATION_RELATIONSHIP('SRR','None',#459,#12);
#12=ADVANCED_BREP_SHAPE_REPRESENTATION($,(#14),#449);
#13=STYLED_ITEM('',(#468),#14);
#14=MANIFOLD_SOLID_BREP('\X2\5BE69AD4\X0\1',#268);
#15=FACE_BOUND('',#44,.T.);
#16=FACE_BOUND('',#50,.T.);
#17=FACE_BOUND('',#55,.T.);
#18=FACE_BOUND('',#57,.T.);
#19=FACE_BOUND('',#59,.T.);
#20=PLANE('',#273);
#21=PLANE('',#278);
#22=PLANE('',#282);
#23=PLANE('',#288);
#24=PLANE('',#292);
#25=PLANE('',#293);
#26=PLANE('',#294);
#27=PLANE('',#295);
#28=FACE_OUTER_BOUND('',#42,.T.);
#29=FACE_OUTER_BOUND('',#43,.T.);
#30=FACE_OUTER_BOUND('',#45,.T.);
#31=FACE_OUTER_BOUND('',#46,.T.);
#32=FACE_OUTER_BOUND('',#47,.T.);
#33=FACE_OUTER_BOUND('',#48,.T.);
#34=FACE_OUTER_BOUND('',#49,.T.);
#35=FACE_OUTER_BOUND('',#51,.T.);
#36=FACE_OUTER_BOUND('',#52,.T.);
#37=FACE_OUTER_BOUND('',#53,.T.);
#38=FACE_OUTER_BOUND('',#54,.T.);
#39=FACE_OUTER_BOUND('',#56,.T.);
#40=FACE_OUTER_BOUND('',#58,.T.);
#41=FACE_OUTER_BOUND('',#60,.T.);
#42=EDGE_LOOP('',(#178,#179,#180,#181));
#43=EDGE_LOOP('',(#182,#183,#184,#185));
#44=EDGE_LOOP('',(#186));
#45=EDGE_LOOP('',(#187,#188,#189,#190));
#46=EDGE_LOOP('',(#191,#192,#193,#194));
#47=EDGE_LOOP('',(#195,#196,#197,#198));
#48=EDGE_LOOP('',(#199,#200,#201,#202));
#49=EDGE_LOOP('',(#203));
#50=EDGE_LOOP('',(#204));
#51=EDGE_LOOP('',(#205,#206,#207,#208));
#52=EDGE_LOOP('',(#209,#210,#211,#212,#213,#214,#215));
#53=EDGE_LOOP('',(#216,#217,#218,#219));
#54=EDGE_LOOP('',(#220,#221,#222,#223));
#55=EDGE_LOOP('',(#224,#225,#226,#227));
#56=EDGE_LOOP('',(#228,#229,#230,#231));
#57=EDGE_LOOP('',(#232));
#58=EDGE_LOOP('',(#233,#234,#235,#236));
#59=EDGE_LOOP('',(#237,#238,#239,#240));
#60=EDGE_LOOP('',(#241,#242,#243,#244,#245,#246,#247));
#61=LINE('',#379,#84);
#62=LINE('',#382,#85);
#63=LINE('',#385,#86);
#64=LINE('',#387,#87);
#65=LINE('',#388,#88);
#66=LINE('',#396,#89);
#67=LINE('',#399,#90);
#68=LINE('',#402,#91);
#69=LINE('',#404,#92);
#70=LINE('',#405,#93);
#71=LINE('',#411,#94);
#72=LINE('',#413,#95);
#73=LINE('',#414,#96);
#74=LINE('',#423,#97);
#75=LINE('',#426,#98);
#76=LINE('',#428,#99);
#77=LINE('',#432,#100);
#78=LINE('',#433,#101);
#79=LINE('',#437,#102);
#80=LINE('',#439,#103);
#81=LINE('',#442,#104);
#82=LINE('',#443,#105);
#83=LINE('',#445,#106);
#84=VECTOR('',#302,15.);
#85=VECTOR('',#305,15.);
#86=VECTOR('',#308,11.);
#87=VECTOR('',#309,15.);
#88=VECTOR('',#310,11.);
#89=VECTOR('',#317,3.);
#90=VECTOR('',#320,3.);
#91=VECTOR('',#323,3.);
#92=VECTOR('',#324,3.);
#93=VECTOR('',#325,3.);
#94=VECTOR('',#332,3.);
#95=VECTOR('',#335,3.);
#96=VECTOR('',#336,3.);
#97=VECTOR('',#345,15.);
#98=VECTOR('',#348,15.);
#99=VECTOR('',#351,11.);
#100=VECTOR('',#354,20.);
#101=VECTOR('',#355,20.);
#102=VECTOR('',#360,15.);
#103=VECTOR('',#363,11.);
#104=VECTOR('',#366,20.);
#105=VECTOR('',#367,15.);
#106=VECTOR('',#370,20.);
#107=CIRCLE('',#271,3.);
#108=CIRCLE('',#272,3.);
#109=CIRCLE('',#274,2.25);
#110=CIRCLE('',#276,2.25);
#111=CIRCLE('',#277,2.25);
#112=CIRCLE('',#280,2.25);
#113=CIRCLE('',#281,2.25);
#114=CIRCLE('',#284,2.25);
#115=CIRCLE('',#286,3.);
#116=CIRCLE('',#287,3.);
#117=CIRCLE('',#289,3.);
#118=CIRCLE('',#291,3.);
#119=VERTEX_POINT('',#375);
#120=VERTEX_POINT('',#376);
#121=VERTEX_POINT('',#378);
#122=VERTEX_POINT('',#380);
#123=VERTEX_POINT('',#384);
#124=VERTEX_POINT('',#386);
#125=VERTEX_POINT('',#389);
#126=VERTEX_POINT('',#392);
#127=VERTEX_POINT('',#393);
#128=VERTEX_POINT('',#395);
#129=VERTEX_POINT('',#397);
#130=VERTEX_POINT('',#401);
#131=VERTEX_POINT('',#403);
#132=VERTEX_POINT('',#407);
#133=VERTEX_POINT('',#409);
#134=VERTEX_POINT('',#416);
#135=VERTEX_POINT('',#419);
#136=VERTEX_POINT('',#420);
#137=VERTEX_POINT('',#422);
#138=VERTEX_POINT('',#424);
#139=VERTEX_POINT('',#429);
#140=VERTEX_POINT('',#431);
#141=VERTEX_POINT('',#435);
#142=VERTEX_POINT('',#441);
#143=EDGE_CURVE('',#119,#120,#107,.T.);
#144=EDGE_CURVE('',#120,#121,#61,.T.);
#145=EDGE_CURVE('',#121,#122,#108,.T.);
#146=EDGE_CURVE('',#122,#119,#62,.T.);
#147=EDGE_CURVE('',#123,#120,#63,.T.);
#148=EDGE_CURVE('',#124,#123,#64,.T.);
#149=EDGE_CURVE('',#121,#124,#65,.T.);
#150=EDGE_CURVE('',#125,#125,#109,.T.);
#151=EDGE_CURVE('',#126,#127,#110,.T.);
#152=EDGE_CURVE('',#128,#126,#66,.T.);
#153=EDGE_CURVE('',#129,#128,#111,.T.);
#154=EDGE_CURVE('',#129,#127,#67,.T.);
#155=EDGE_CURVE('',#127,#130,#68,.T.);
#156=EDGE_CURVE('',#131,#129,#69,.T.);
#157=EDGE_CURVE('',#131,#130,#70,.T.);
#158=EDGE_CURVE('',#130,#132,#112,.T.);
#159=EDGE_CURVE('',#133,#131,#113,.T.);
#160=EDGE_CURVE('',#133,#132,#71,.T.);
#161=EDGE_CURVE('',#132,#126,#72,.T.);
#162=EDGE_CURVE('',#128,#133,#73,.T.);
#163=EDGE_CURVE('',#134,#134,#114,.T.);
#164=EDGE_CURVE('',#135,#136,#115,.T.);
#165=EDGE_CURVE('',#137,#136,#74,.T.);
#166=EDGE_CURVE('',#137,#138,#116,.T.);
#167=EDGE_CURVE('',#138,#135,#75,.T.);
#168=EDGE_CURVE('',#135,#122,#76,.T.);
#169=EDGE_CURVE('',#139,#124,#117,.T.);
#170=EDGE_CURVE('',#139,#140,#77,.T.);
#171=EDGE_CURVE('',#140,#136,#78,.T.);
#172=EDGE_CURVE('',#123,#141,#118,.T.);
#173=EDGE_CURVE('',#141,#139,#79,.T.);
#174=EDGE_CURVE('',#119,#138,#80,.T.);
#175=EDGE_CURVE('',#142,#141,#81,.T.);
#176=EDGE_CURVE('',#140,#142,#82,.T.);
#177=EDGE_CURVE('',#137,#142,#83,.T.);
#178=ORIENTED_EDGE('',*,*,#143,.T.);
#179=ORIENTED_EDGE('',*,*,#144,.T.);
#180=ORIENTED_EDGE('',*,*,#145,.T.);
#181=ORIENTED_EDGE('',*,*,#146,.T.);
#182=ORIENTED_EDGE('',*,*,#144,.F.);
#183=ORIENTED_EDGE('',*,*,#147,.F.);
#184=ORIENTED_EDGE('',*,*,#148,.F.);
#185=ORIENTED_EDGE('',*,*,#149,.F.);
#186=ORIENTED_EDGE('',*,*,#150,.T.);
#187=ORIENTED_EDGE('',*,*,#151,.F.);
#188=ORIENTED_EDGE('',*,*,#152,.F.);
#189=ORIENTED_EDGE('',*,*,#153,.F.);
#190=ORIENTED_EDGE('',*,*,#154,.T.);
#191=ORIENTED_EDGE('',*,*,#155,.F.);
#192=ORIENTED_EDGE('',*,*,#154,.F.);
#193=ORIENTED_EDGE('',*,*,#156,.F.);
#194=ORIENTED_EDGE('',*,*,#157,.T.);
#195=ORIENTED_EDGE('',*,*,#158,.F.);
#196=ORIENTED_EDGE('',*,*,#157,.F.);
#197=ORIENTED_EDGE('',*,*,#159,.F.);
#198=ORIENTED_EDGE('',*,*,#160,.T.);
#199=ORIENTED_EDGE('',*,*,#161,.F.);
#200=ORIENTED_EDGE('',*,*,#160,.F.);
#201=ORIENTED_EDGE('',*,*,#162,.F.);
#202=ORIENTED_EDGE('',*,*,#152,.T.);
#203=ORIENTED_EDGE('',*,*,#163,.F.);
#204=ORIENTED_EDGE('',*,*,#150,.F.);
#205=ORIENTED_EDGE('',*,*,#164,.T.);
#206=ORIENTED_EDGE('',*,*,#165,.F.);
#207=ORIENTED_EDGE('',*,*,#166,.T.);
#208=ORIENTED_EDGE('',*,*,#167,.T.);
#209=ORIENTED_EDGE('',*,*,#164,.F.);
#210=ORIENTED_EDGE('',*,*,#168,.T.);
#211=ORIENTED_EDGE('',*,*,#145,.F.);
#212=ORIENTED_EDGE('',*,*,#149,.T.);
#213=ORIENTED_EDGE('',*,*,#169,.F.);
#214=ORIENTED_EDGE('',*,*,#170,.T.);
#215=ORIENTED_EDGE('',*,*,#171,.T.);
#216=ORIENTED_EDGE('',*,*,#169,.T.);
#217=ORIENTED_EDGE('',*,*,#148,.T.);
#218=ORIENTED_EDGE('',*,*,#172,.T.);
#219=ORIENTED_EDGE('',*,*,#173,.T.);
#220=ORIENTED_EDGE('',*,*,#146,.F.);
#221=ORIENTED_EDGE('',*,*,#168,.F.);
#222=ORIENTED_EDGE('',*,*,#167,.F.);
#223=ORIENTED_EDGE('',*,*,#174,.F.);
#224=ORIENTED_EDGE('',*,*,#159,.T.);
#225=ORIENTED_EDGE('',*,*,#156,.T.);
#226=ORIENTED_EDGE('',*,*,#153,.T.);
#227=ORIENTED_EDGE('',*,*,#162,.T.);
#228=ORIENTED_EDGE('',*,*,#173,.F.);
#229=ORIENTED_EDGE('',*,*,#175,.F.);
#230=ORIENTED_EDGE('',*,*,#176,.F.);
#231=ORIENTED_EDGE('',*,*,#170,.F.);
#232=ORIENTED_EDGE('',*,*,#163,.T.);
#233=ORIENTED_EDGE('',*,*,#176,.T.);
#234=ORIENTED_EDGE('',*,*,#177,.F.);
#235=ORIENTED_EDGE('',*,*,#165,.T.);
#236=ORIENTED_EDGE('',*,*,#171,.F.);
#237=ORIENTED_EDGE('',*,*,#158,.T.);
#238=ORIENTED_EDGE('',*,*,#161,.T.);
#239=ORIENTED_EDGE('',*,*,#151,.T.);
#240=ORIENTED_EDGE('',*,*,#155,.T.);
#241=ORIENTED_EDGE('',*,*,#166,.F.);
#242=ORIENTED_EDGE('',*,*,#177,.T.);
#243=ORIENTED_EDGE('',*,*,#175,.T.);
#244=ORIENTED_EDGE('',*,*,#172,.F.);
#245=ORIENTED_EDGE('',*,*,#147,.T.);
#246=ORIENTED_EDGE('',*,*,#143,.F.);
#247=ORIENTED_EDGE('',*,*,#174,.T.);
#248=CYLINDRICAL_SURFACE('',#270,3.);
#249=CYLINDRICAL_SURFACE('',#275,2.25);
#250=CYLINDRICAL_SURFACE('',#279,2.25);
#251=CYLINDRICAL_SURFACE('',#283,2.25);
#252=CYLINDRICAL_SURFACE('',#285,3.);
#253=CYLINDRICAL_SURFACE('',#290,3.);
#254=ADVANCED_FACE('',(#28),#248,.F.);
#255=ADVANCED_FACE('',(#29,#15),#20,.T.);
#256=ADVANCED_FACE('',(#30),#249,.F.);
#257=ADVANCED_FACE('',(#31),#21,.F.);
#258=ADVANCED_FACE('',(#32),#250,.F.);
#259=ADVANCED_FACE('',(#33),#22,.F.);
#260=ADVANCED_FACE('',(#34,#16),#251,.F.);
#261=ADVANCED_FACE('',(#35),#252,.T.);
#262=ADVANCED_FACE('',(#36),#23,.T.);
#263=ADVANCED_FACE('',(#37),#253,.T.);
#264=ADVANCED_FACE('',(#38,#17),#24,.T.);
#265=ADVANCED_FACE('',(#39,#18),#25,.T.);
#266=ADVANCED_FACE('',(#40,#19),#26,.T.);
#267=ADVANCED_FACE('',(#41),#27,.T.);
#268=CLOSED_SHELL('',(#254,#255,#256,#257,#258,#259,#260,#261,#262,#263,
#264,#265,#266,#267));
#269=AXIS2_PLACEMENT_3D('placement',#373,#296,#297);
#270=AXIS2_PLACEMENT_3D('',#374,#298,#299);
#271=AXIS2_PLACEMENT_3D('',#377,#300,#301);
#272=AXIS2_PLACEMENT_3D('',#381,#303,#304);
#273=AXIS2_PLACEMENT_3D('',#383,#306,#307);
#274=AXIS2_PLACEMENT_3D('',#390,#311,#312);
#275=AXIS2_PLACEMENT_3D('',#391,#313,#314);
#276=AXIS2_PLACEMENT_3D('',#394,#315,#316);
#277=AXIS2_PLACEMENT_3D('',#398,#318,#319);
#278=AXIS2_PLACEMENT_3D('',#400,#321,#322);
#279=AXIS2_PLACEMENT_3D('',#406,#326,#327);
#280=AXIS2_PLACEMENT_3D('',#408,#328,#329);
#281=AXIS2_PLACEMENT_3D('',#410,#330,#331);
#282=AXIS2_PLACEMENT_3D('',#412,#333,#334);
#283=AXIS2_PLACEMENT_3D('',#415,#337,#338);
#284=AXIS2_PLACEMENT_3D('',#417,#339,#340);
#285=AXIS2_PLACEMENT_3D('',#418,#341,#342);
#286=AXIS2_PLACEMENT_3D('',#421,#343,#344);
#287=AXIS2_PLACEMENT_3D('',#425,#346,#347);
#288=AXIS2_PLACEMENT_3D('',#427,#349,#350);
#289=AXIS2_PLACEMENT_3D('',#430,#352,#353);
#290=AXIS2_PLACEMENT_3D('',#434,#356,#357);
#291=AXIS2_PLACEMENT_3D('',#436,#358,#359);
#292=AXIS2_PLACEMENT_3D('',#438,#361,#362);
#293=AXIS2_PLACEMENT_3D('',#440,#364,#365);
#294=AXIS2_PLACEMENT_3D('',#444,#368,#369);
#295=AXIS2_PLACEMENT_3D('',#446,#371,#372);
#296=DIRECTION('axis',(0.,0.,1.));
#297=DIRECTION('refdir',(1.,0.,0.));
#298=DIRECTION('center_axis',(0.,0.,-1.));
#299=DIRECTION('ref_axis',(-0.707106781186547,-0.707106781186548,0.));
#300=DIRECTION('center_axis',(0.,0.,1.));
#301=DIRECTION('ref_axis',(-0.707106781186547,-0.707106781186548,0.));
#302=DIRECTION('',(0.,0.,-1.));
#303=DIRECTION('center_axis',(0.,0.,-1.));
#304=DIRECTION('ref_axis',(-0.707106781186547,-0.707106781186548,0.));
#305=DIRECTION('',(0.,0.,1.));
#306=DIRECTION('center_axis',(-1.95921710227969E-16,1.,0.));
#307=DIRECTION('ref_axis',(-1.,-1.77635683940025E-16,0.));
#308=DIRECTION('',(-1.,-1.95921710227969E-16,0.));
#309=DIRECTION('',(0.,0.,1.));
#310=DIRECTION('',(1.,1.95921710227969E-16,0.));
#311=DIRECTION('center_axis',(1.95921710227969E-16,-1.,0.));
#312=DIRECTION('ref_axis',(-1.,-1.48029736616688E-16,0.));
#313=DIRECTION('center_axis',(-1.,-1.48029736616688E-16,0.));
#314=DIRECTION('ref_axis',(-1.46085352818706E-31,9.86864910777918E-16,-1.));
#315=DIRECTION('center_axis',(1.,0.,0.));
#316=DIRECTION('ref_axis',(-1.46085352818706E-31,9.86864910777918E-16,-1.));
#317=DIRECTION('',(-1.,-1.48029736616688E-16,0.));
#318=DIRECTION('center_axis',(-1.,-1.30614473485313E-16,0.));
#319=DIRECTION('ref_axis',(-1.46085352818706E-31,9.86864910777918E-16,-1.));
#320=DIRECTION('',(-1.,-1.48029736616688E-16,0.));
#321=DIRECTION('center_axis',(2.19128029228059E-31,-1.48029736616688E-15,
1.));
#322=DIRECTION('ref_axis',(-1.33226762955019E-16,1.,1.46549439250521E-15));
#323=DIRECTION('',(0.,-1.,-1.48029736616688E-15));
#324=DIRECTION('',(-1.30614473485313E-16,1.,1.48029736616688E-15));
#325=DIRECTION('',(-1.,-1.48029736616688E-16,0.));
#326=DIRECTION('center_axis',(-1.,-1.48029736616688E-16,0.));
#327=DIRECTION('ref_axis',(1.46085352818706E-31,-9.86864910777918E-16,1.));
#328=DIRECTION('center_axis',(1.,0.,0.));
#329=DIRECTION('ref_axis',(1.46085352818706E-31,-9.86864910777918E-16,1.));
#330=DIRECTION('center_axis',(-1.,-1.30614473485313E-16,0.));
#331=DIRECTION('ref_axis',(1.46085352818706E-31,-9.86864910777918E-16,1.));
#332=DIRECTION('',(-1.,-1.48029736616688E-16,0.));
#333=DIRECTION('center_axis',(-1.09564014614029E-31,7.40148683083438E-16,
-1.));
#334=DIRECTION('ref_axis',(1.33226762955019E-16,-1.,-7.54951656745106E-16));
#335=DIRECTION('',(0.,1.,7.40148683083438E-16));
#336=DIRECTION('',(1.30614473485313E-16,-1.,-7.40148683083438E-16));
#337=DIRECTION('center_axis',(1.48029736616688E-16,-1.,0.));
#338=DIRECTION('ref_axis',(-1.,-1.48029736616688E-16,0.));
#339=DIRECTION('center_axis',(0.,1.,0.));
#340=DIRECTION('ref_axis',(-1.,-1.48029736616688E-16,0.));
#341=DIRECTION('center_axis',(0.,0.,-1.));
#342=DIRECTION('ref_axis',(0.707106781186547,0.707106781186548,0.));
#343=DIRECTION('center_axis',(0.,0.,1.));
#344=DIRECTION('ref_axis',(0.707106781186547,0.707106781186548,0.));
#345=DIRECTION('',(0.,0.,-1.));
#346=DIRECTION('center_axis',(0.,0.,-1.));
#347=DIRECTION('ref_axis',(0.707106781186547,0.707106781186548,0.));
#348=DIRECTION('',(0.,0.,-1.));
#349=DIRECTION('center_axis',(0.,0.,-1.));
#350=DIRECTION('ref_axis',(-1.,0.,0.));
#351=DIRECTION('',(1.30614473485313E-16,-1.,0.));
#352=DIRECTION('center_axis',(0.,0.,1.));
#353=DIRECTION('ref_axis',(0.707106781186547,0.707106781186547,0.));
#354=DIRECTION('',(-1.,0.,0.));
#355=DIRECTION('',(0.,1.,0.));
#356=DIRECTION('center_axis',(0.,0.,-1.));
#357=DIRECTION('ref_axis',(0.707106781186547,0.707106781186547,0.));
#358=DIRECTION('center_axis',(0.,0.,-1.));
#359=DIRECTION('ref_axis',(0.707106781186547,0.707106781186547,0.));
#360=DIRECTION('',(0.,0.,-1.));
#361=DIRECTION('center_axis',(1.,1.30614473485313E-16,0.));
#362=DIRECTION('ref_axis',(-1.33226762955019E-16,1.,0.));
#363=DIRECTION('',(-1.30614473485313E-16,1.,0.));
#364=DIRECTION('center_axis',(0.,-1.,0.));
#365=DIRECTION('ref_axis',(1.,0.,0.));
#366=DIRECTION('',(1.,0.,0.));
#367=DIRECTION('',(0.,0.,1.));
#368=DIRECTION('center_axis',(-1.,0.,0.));
#369=DIRECTION('ref_axis',(0.,-1.,0.));
#370=DIRECTION('',(0.,-1.,0.));
#371=DIRECTION('center_axis',(0.,0.,1.));
#372=DIRECTION('ref_axis',(1.,0.,0.));
#373=CARTESIAN_POINT('',(0.,0.,0.));
#374=CARTESIAN_POINT('Origin',(6.,6.,0.));
#375=CARTESIAN_POINT('',(3.,6.,7.5));
#376=CARTESIAN_POINT('',(6.,3.,7.5));
#377=CARTESIAN_POINT('Origin',(6.,6.,7.5));
#378=CARTESIAN_POINT('',(6.,3.,-7.5));
#379=CARTESIAN_POINT('',(6.,3.,0.));
#380=CARTESIAN_POINT('',(3.,6.,-7.5));
#381=CARTESIAN_POINT('Origin',(6.,6.,-7.5));
#382=CARTESIAN_POINT('',(3.,6.,0.));
#383=CARTESIAN_POINT('Origin',(20.,3.00000000000001,0.));
#384=CARTESIAN_POINT('',(17.,3.00000000000001,7.5));
#385=CARTESIAN_POINT('',(3.,3.,7.5));
#386=CARTESIAN_POINT('',(17.,3.00000000000001,-7.5));
#387=CARTESIAN_POINT('',(17.,3.00000000000001,0.));
#388=CARTESIAN_POINT('',(3.,3.,-7.5));
#389=CARTESIAN_POINT('',(15.25,3.00000000000001,-2.75545529808155E-16));
#390=CARTESIAN_POINT('Origin',(13.,3.,0.));
#391=CARTESIAN_POINT('Origin',(3.,13.,-2.22044604925031E-15));
#392=CARTESIAN_POINT('',(0.,13.,-2.25));
#393=CARTESIAN_POINT('',(0.,13.,2.25));
#394=CARTESIAN_POINT('Origin',(1.11022302462516E-15,13.,-2.22044604925031E-15));
#395=CARTESIAN_POINT('',(3.,13.,-2.25));
#396=CARTESIAN_POINT('',(3.,13.,-2.25));
#397=CARTESIAN_POINT('',(3.,13.,2.25));
#398=CARTESIAN_POINT('Origin',(3.,13.,-2.22044604925031E-15));
#399=CARTESIAN_POINT('',(3.,13.,2.25));
#400=CARTESIAN_POINT('Origin',(3.,10.,2.25));
#401=CARTESIAN_POINT('',(0.,10.,2.25));
#402=CARTESIAN_POINT('',(0.,15.,2.25));
#403=CARTESIAN_POINT('',(3.,10.,2.25));
#404=CARTESIAN_POINT('',(3.,6.5,2.24999999999999));
#405=CARTESIAN_POINT('',(3.,10.,2.25));
#406=CARTESIAN_POINT('Origin',(3.,10.,-2.22044604925031E-15));
#407=CARTESIAN_POINT('',(0.,10.,-2.25));
#408=CARTESIAN_POINT('Origin',(1.66533453693773E-15,10.,-2.22044604925031E-15));
#409=CARTESIAN_POINT('',(3.,10.,-2.25));
#410=CARTESIAN_POINT('Origin',(3.,10.,-2.22044604925031E-15));
#411=CARTESIAN_POINT('',(3.,10.,-2.25));
#412=CARTESIAN_POINT('Origin',(3.,13.,-2.25));
#413=CARTESIAN_POINT('',(0.,16.5,-2.25));
#414=CARTESIAN_POINT('',(3.,8.,-2.25));
#415=CARTESIAN_POINT('Origin',(13.,3.,0.));
#416=CARTESIAN_POINT('',(15.25,1.99840144432528E-15,-2.75545529808155E-16));
#417=CARTESIAN_POINT('Origin',(13.,1.66533453693773E-15,0.));
#418=CARTESIAN_POINT('Origin',(-8.32667268468867E-16,17.,0.));
#419=CARTESIAN_POINT('',(3.,17.,-7.5));
#420=CARTESIAN_POINT('',(0.,20.,-7.5));
#421=CARTESIAN_POINT('Origin',(-8.32667268468867E-16,17.,-7.5));
#422=CARTESIAN_POINT('',(0.,20.,7.5));
#423=CARTESIAN_POINT('',(0.,20.,0.));
#424=CARTESIAN_POINT('',(3.,17.,7.5));
#425=CARTESIAN_POINT('Origin',(-8.32667268468867E-16,17.,7.5));
#426=CARTESIAN_POINT('',(3.,17.,0.));
#427=CARTESIAN_POINT('Origin',(6.3875,6.3875,-7.5));
#428=CARTESIAN_POINT('',(3.,20.,-7.5));
#429=CARTESIAN_POINT('',(20.,0.,-7.5));
#430=CARTESIAN_POINT('Origin',(17.,4.96334999244188E-15,-7.5));
#431=CARTESIAN_POINT('',(0.,0.,-7.5));
#432=CARTESIAN_POINT('',(20.,0.,-7.5));
#433=CARTESIAN_POINT('',(0.,0.,-7.5));
#434=CARTESIAN_POINT('Origin',(17.,4.96334999244188E-15,0.));
#435=CARTESIAN_POINT('',(20.,0.,7.5));
#436=CARTESIAN_POINT('Origin',(17.,4.96334999244188E-15,7.5));
#437=CARTESIAN_POINT('',(20.,0.,0.));
#438=CARTESIAN_POINT('Origin',(3.,3.,0.));
#439=CARTESIAN_POINT('',(3.,20.,7.5));
#440=CARTESIAN_POINT('Origin',(0.,0.,0.));
#441=CARTESIAN_POINT('',(0.,0.,7.5));
#442=CARTESIAN_POINT('',(20.,0.,7.5));
#443=CARTESIAN_POINT('',(0.,0.,0.));
#444=CARTESIAN_POINT('Origin',(0.,20.,0.));
#445=CARTESIAN_POINT('',(0.,0.,7.5));
#446=CARTESIAN_POINT('Origin',(6.3875,6.3875,7.5));
#447=UNCERTAINTY_MEASURE_WITH_UNIT(LENGTH_MEASURE(0.01),#451,
'DISTANCE_ACCURACY_VALUE',
'Maximum model space distance between geometric entities at asserted c
onnectivities');
#448=UNCERTAINTY_MEASURE_WITH_UNIT(LENGTH_MEASURE(1.E-6),#451,
'DISTANCE_ACCURACY_VALUE',
'Maximum model space distance between geometric entities at asserted c
onnectivities');
#449=(
GEOMETRIC_REPRESENTATION_CONTEXT(3)
GLOBAL_UNCERTAINTY_ASSIGNED_CONTEXT((#447))
GLOBAL_UNIT_ASSIGNED_CONTEXT((#451,#454,#452))
REPRESENTATION_CONTEXT('','3D')
);
#450=(
GEOMETRIC_REPRESENTATION_CONTEXT(3)
GLOBAL_UNCERTAINTY_ASSIGNED_CONTEXT((#448))
GLOBAL_UNIT_ASSIGNED_CONTEXT((#451,#454,#452))
REPRESENTATION_CONTEXT('','3D')
);
#451=(
LENGTH_UNIT()
NAMED_UNIT(*)
SI_UNIT(.MILLI.,.METRE.)
);
#452=(
NAMED_UNIT(*)
SI_UNIT($,.STERADIAN.)
SOLID_ANGLE_UNIT()
);
#453=DIMENSIONAL_EXPONENTS(0.,0.,0.,0.,0.,0.,0.);
#454=(
CONVERSION_BASED_UNIT('degree',#456)
NAMED_UNIT(#453)
PLANE_ANGLE_UNIT()
);
#455=(
NAMED_UNIT(*)
PLANE_ANGLE_UNIT()
SI_UNIT($,.RADIAN.)
);
#456=PLANE_ANGLE_MEASURE_WITH_UNIT(PLANE_ANGLE_MEASURE(0.01745329252),#455);
#457=SHAPE_DEFINITION_REPRESENTATION(#458,#459);
#458=PRODUCT_DEFINITION_SHAPE('',$,#461);
#459=SHAPE_REPRESENTATION('',(#269),#449);
#460=PRODUCT_DEFINITION_CONTEXT('part definition',#465,'design');
#461=PRODUCT_DEFINITION('DAL2015-4','DAL2015-4',#462,#460);
#462=PRODUCT_DEFINITION_FORMATION('',$,#467);
#463=PRODUCT_RELATED_PRODUCT_CATEGORY('DAL2015-4','DAL2015-4',(#467));
#464=APPLICATION_PROTOCOL_DEFINITION('international standard',
'automotive_design',2009,#465);
#465=APPLICATION_CONTEXT(
'Core Data for Automotive Mechanical Design Process');
#466=PRODUCT_CONTEXT('part definition',#465,'mechanical');
#467=PRODUCT('DAL2015-4','DAL2015-4',$,(#466));
#468=PRESENTATION_STYLE_ASSIGNMENT((#469));
#469=SURFACE_STYLE_USAGE(.BOTH.,#470);
#470=SURFACE_SIDE_STYLE($,(#471));
#471=SURFACE_STYLE_FILL_AREA(#472);
#472=FILL_AREA_STYLE($,(#473));
#473=FILL_AREA_STYLE_COLOUR($,#474);
#474=COLOUR_RGB('',0.749019607843137,0.749019607843137,0.749019607843137);
ENDSEC;
END-ISO-10303-21;
